  0
SECTION
  2
HEADER
  9
$ACADVER
  1
AC1018
  9
$ACADMAINTVER
 70
     0
  9
$DWGCODEPAGE
  3
ANSI_932
  9
$TITLE
  1
6FP-Uzx
  9
$SUBJECT
  1
旗ポール
  9
$AUTHOR
  1
修正tokoro
  9
$KEYWORDS
  1
FP060UZX
  9
$COMMENTS
  1
 
  9
$LASTSAVEDBY
  1
修正tokoro
  9
$CUSTOMPROPERTYTAG
  1
 
  9
$CUSTOMPROPERTY
  1
 
  9
$CUSTOMPROPERTYTAG
  1
 
  9
$CUSTOMPROPERTY
  1
 
  9
$CUSTOMPROPERTYTAG
  1
 
  9
$CUSTOMPROPERTY
  1
 
  9
$CUSTOMPROPERTYTAG
  1
 
  9
$CUSTOMPROPERTY
  1
 
  9
$CUSTOMPROPERTYTAG
  1
 
  9
$CUSTOMPROPERTY
  1
 
  9
$CUSTOMPROPERTYTAG
  1
 
  9
$CUSTOMPROPERTY
  1
 
  9
$CUSTOMPROPERTYTAG
  1
 
  9
$CUSTOMPROPERTY
  1
 
  9
$CUSTOMPROPERTYTAG
  1
 
  9
$CUSTOMPROPERTY
  1
 
  9
$CUSTOMPROPERTYTAG
  1
 
  9
$CUSTOMPROPERTY
  1
 
  9
$CUSTOMPROPERTYTAG
  1
 
  9
$CUSTOMPROPERTY
  1
 
  9
$INSBASE
 10
0.0
 20
0.0
 30
0.0
  9
$EXTMIN
 10
0.0
 20
0.0
 30
0.0
  9
$EXTMAX
 10
420.0
 20
297.0
 30
0.0
  9
$LIMMIN
 10
0.0
 20
0.0
  9
$LIMMAX
 10
420.0
 20
297.0
  9
$ORTHOMODE
 70
     0
  9
$REGENMODE
 70
     1
  9
$FILLMODE
 70
     1
  9
$QTEXTMODE
 70
     0
  9
$MIRRTEXT
 70
     1
  9
$LTSCALE
 40
8.4
  9
$ATTMODE
 70
     1
  9
$TEXTSIZE
 40
0.2
  9
$TRACEWID
 40
0.05
  9
$TEXTSTYLE
  7
STANDARD
  9
$CLAYER
  8
0
  9
$CELTYPE
  6
BYBLOCK
  9
$CECOLOR
 62
   256
  9
$CELTSCALE
 40
1.0
  9
$DISPSILH
 70
     0
  9
$DIMSCALE
 40
1.0
  9
$DIMASZ
 40
0.18
  9
$DIMEXO
 40
0.0625
  9
$DIMDLI
 40
0.38
  9
$DIMRND
 40
0.0
  9
$DIMDLE
 40
0.0
  9
$DIMEXE
 40
0.18
  9
$DIMTP
 40
0.0
  9
$DIMTM
 40
0.0
  9
$DIMTXT
 40
0.18
  9
$DIMCEN
 40
0.09
  9
$DIMTSZ
 40
0.0
  9
$DIMTOL
 70
     0
  9
$DIMLIM
 70
     0
  9
$DIMTIH
 70
     1
  9
$DIMTOH
 70
     1
  9
$DIMSE1
 70
     0
  9
$DIMSE2
 70
     0
  9
$DIMTAD
 70
     0
  9
$DIMZIN
 70
     0
  9
$DIMBLK
  1

  9
$DIMASO
 70
     1
  9
$DIMSHO
 70
     1
  9
$DIMPOST
  1

  9
$DIMAPOST
  1

  9
$DIMALT
 70
     0
  9
$DIMALTD
 70
     2
  9
$DIMALTF
 40
25.4
  9
$DIMLFAC
 40
1.0
  9
$DIMTOFL
 70
     0
  9
$DIMTVP
 40
0.0
  9
$DIMTIX
 70
     0
  9
$DIMSOXD
 70
     0
  9
$DIMSAH
 70
     0
  9
$DIMBLK1
  1

  9
$DIMBLK2
  1

  9
$DIMSTYLE
  2
STANDARD
  9
$DIMCLRD
 70
     0
  9
$DIMCLRE
 70
     0
  9
$DIMCLRT
 70
     0
  9
$DIMTFAC
 40
1.0
  9
$DIMGAP
 40
0.09
  9
$DIMJUST
 70
     0
  9
$DIMSD1
 70
     0
  9
$DIMSD2
 70
     0
  9
$DIMTOLJ
 70
     1
  9
$DIMTZIN
 70
     0
  9
$DIMALTZ
 70
     0
  9
$DIMALTTZ
 70
     0
  9
$DIMUPT
 70
     0
  9
$DIMDEC
 70
     4
  9
$DIMTDEC
 70
     4
  9
$DIMALTU
 70
     2
  9
$DIMALTTD
 70
     2
  9
$DIMTXSTY
  7
STANDARD
  9
$DIMAUNIT
 70
     0
  9
$DIMADEC
 70
     0
  9
$DIMALTRND
 40
0.0
  9
$DIMAZIN
 70
     0
  9
$DIMDSEP
 70
    46
  9
$DIMATFIT
 70
     3
  9
$DIMFRAC
 70
     0
  9
$DIMLDRBLK
  1

  9
$DIMLUNIT
 70
     2
  9
$DIMLWD
 70
    -2
  9
$DIMLWE
 70
    -2
  9
$DIMTMOVE
 70
     0
  9
$LUNITS
 70
     2
  9
$LUPREC
 70
     4
  9
$SKETCHINC
 40
0.1
  9
$FILLETRAD
 40
0.5
  9
$AUNITS
 70
     0
  9
$AUPREC
 70
     0
  9
$MENU
  1
.
  9
$ELEVATION
 40
0.0
  9
$PELEVATION
 40
0.0
  9
$THICKNESS
 40
0.0
  9
$LIMCHECK
 70
     0
  9
$CHAMFERA
 40
0.0
  9
$CHAMFERB
 40
0.0
  9
$CHAMFERC
 40
0.0
  9
$CHAMFERD
 40
0.0
  9
$SKPOLY
 70
     0
  9
$TDCREATE
 40
2447893.375
  9
$TDUCREATE
 40
0.0
  9
$TDUPDATE
 40
2460012.767628947
  9
$TDUUPDATE
 40
2460012.392628947
  9
$TDINDWG
 40
0.0
  9
$TDUSRTIMER
 40
0.0
  9
$USRTIMER
 70
     1
  9
$ANGBASE
 50
0.0
  9
$ANGDIR
 70
     0
  9
$PDMODE
 70
     0
  9
$PDSIZE
 40
0.0
  9
$PLINEWID
 40
0.0
  9
$SPLFRAME
 70
     0
  9
$SPLINETYPE
 70
     6
  9
$SPLINESEGS
 70
     8
  9
$HANDSEED
  5
3B3
  9
$SURFTAB1
 70
     6
  9
$SURFTAB2
 70
     6
  9
$SURFTYPE
 70
     6
  9
$SURFU
 70
     6
  9
$SURFV
 70
     6
  9
$UCSBASE
  2

  9
$UCSNAME
  2

  9
$UCSORG
 10
0.0
 20
0.0
 30
0.0
  9
$UCSXDIR
 10
1.0
 20
0.0
 30
0.0
  9
$UCSYDIR
 10
0.0
 20
1.0
 30
0.0
  9
$UCSORTHOREF
  2

  9
$UCSORTHOVIEW
 70
     0
  9
$UCSORGTOP
 10
0.0
 20
0.0
 30
0.0
  9
$UCSORGBOTTOM
 10
0.0
 20
0.0
 30
0.0
  9
$UCSORGLEFT
 10
0.0
 20
0.0
 30
0.0
  9
$UCSORGRIGHT
 10
0.0
 20
0.0
 30
0.0
  9
$UCSORGFRONT
 10
0.0
 20
0.0
 30
0.0
  9
$UCSORGBACK
 10
0.0
 20
0.0
 30
0.0
  9
$PUCSBASE
  2

  9
$PUCSNAME
  2

  9
$PUCSORG
 10
0.0
 20
0.0
 30
0.0
  9
$PUCSXDIR
 10
1.0
 20
0.0
 30
0.0
  9
$PUCSYDIR
 10
0.0
 20
1.0
 30
0.0
  9
$PUCSORTHOREF
  2

  9
$PUCSORTHOVIEW
 70
     0
  9
$PUCSORGTOP
 10
0.0
 20
0.0
 30
0.0
  9
$PUCSORGBOTTOM
 10
0.0
 20
0.0
 30
0.0
  9
$PUCSORGLEFT
 10
0.0
 20
0.0
 30
0.0
  9
$PUCSORGRIGHT
 10
0.0
 20
0.0
 30
0.0
  9
$PUCSORGFRONT
 10
0.0
 20
0.0
 30
0.0
  9
$PUCSORGBACK
 10
0.0
 20
0.0
 30
0.0
  9
$USERI1
 70
     0
  9
$USERI2
 70
     0
  9
$USERI3
 70
     0
  9
$USERI4
 70
     0
  9
$USERI5
 70
     0
  9
$USERR1
 40
0.0
  9
$USERR2
 40
0.0
  9
$USERR3
 40
0.0
  9
$USERR4
 40
0.0
  9
$USERR5
 40
0.0
  9
$WORLDVIEW
 70
     1
  9
$SHADEDGE
 70
     3
  9
$SHADEDIF
 70
    70
  9
$TILEMODE
 70
     1
  9
$MAXACTVP
 70
    64
  9
$PINSBASE
 10
0.0
 20
0.0
 30
0.0
  9
$PLIMCHECK
 70
     0
  9
$PEXTMIN
 10
1.000000000000000E+20
 20
1.000000000000000E+20
 30
1.000000000000000E+20
  9
$PEXTMAX
 10
-1.000000000000000E+20
 20
-1.000000000000000E+20
 30
-1.000000000000000E+20
  9
$PLIMMIN
 10
0.0
 20
0.0
  9
$PLIMMAX
 10
12.0
 20
9.0
  9
$UNITMODE
 70
     0
  9
$VISRETAIN
 70
     1
  9
$PLINEGEN
 70
     0
  9
$PSLTSCALE
 70
     1
  9
$TREEDEPTH
 70
  3020
  9
$CMLSTYLE
  2

  9
$CMLJUST
 70
     0
  9
$CMLSCALE
 40
1.0
  9
$PROXYGRAPHICS
 70
     1
  9
$MEASUREMENT
 70
     0
  9
$CELWEIGHT
370
    -1
  9
$ENDCAPS
280
     0
  9
$JOINSTYLE
280
     0
  9
$LWDISPLAY
290
     0
  9
$INSUNITS
 70
     0
  9
$HYPERLINKBASE
  1

  9
$STYLESHEET
  1

  9
$XEDIT
290
     1
  9
$CEPSNTYPE
380
     0
  9
$PSTYLEMODE
290
     1
  9
$FINGERPRINTGUID
  2
{89199082-71D7-4333-94EF-8A14F90FF4C5}
  9
$VERSIONGUID
  2
{FAEB1C32-E019-11D5-929B-00C0DF256EC4}
  9
$EXTNAMES
290
     1
  9
$PSVPSCALE
 40
0.0
  9
$OLESTARTUP
290
     0
  9
$SORTENTS
280
   127
  9
$INDEXCTL
280
     0
  9
$HIDETEXT
280
     1
  9
$XCLIPFRAME
290
     0
  9
$HALOGAP
280
     0
  9
$OBSCOLOR
 70
   257
  9
$OBSLTYPE
280
     0
  9
$INTERSECTIONDISPLAY
280
     0
  9
$INTERSECTIONCOLOR
 70
   257
  9
$DIMASSOC
280
     2
  9
$PROJECTNAME
  1

  0
ENDSEC
  0
SECTION
  2
CLASSES
  0
CLASS
  1
SCALE
  2
AcDbScale
  3
ObjectDBX Classes
 90
     1153
 91
        4
280
     0
281
     0
  0
CLASS
  1
VISUALSTYLE
  2
AcDbVisualStyle
  3
ObjectDBX Classes
 90
     4095
 91
        4
280
     0
281
     0
  0
CLASS
  1
MATERIAL
  2
AcDbMaterial
  3
ObjectDBX Classes
 90
     1153
 91
        4
280
     0
281
     0
  0
CLASS
  1
ACDBDICTIONARYWDFLT
  2
AcDbDictionaryWithDefault
  3
ObjectDBX Classes
 90
        0
 91
        4
280
     0
281
     0
  0
CLASS
  1
DICTIONARYVAR
  2
AcDbDictionaryVar
  3
ObjectDBX Classes
 90
        0
 91
        4
280
     0
281
     0
  0
ENDSEC
  0
SECTION
  2
TABLES
  0
TABLE
  2
VPORT
  5
8
102
{ACAD_XDICTIONARY
360
374
102
}
330
0
100
AcDbSymbolTable
 70
     1
  0
VPORT
  5
32F
330
8
100
AcDbSymbolTableRecord
100
AcDbViewportTableRecord
  2
*ACTIVE
 70
     0
 10
0.0
 20
0.0
 11
1.0
 21
1.0
 12
210.0
 22
148.5
 13
0.0
 23
0.0
 14
1.0
 24
1.0
 15
0.0
 25
0.0
 16
0.0
 26
0.0
 36
1.0
 17
0.0
 27
0.0
 37
0.0
 40
420.0
 41
1.4787878787879
 42
50.0
 43
0.0
 44
0.0
 50
0.0
 51
0.0
 71
     0
 72
   100
 73
     1
 74
     1
 75
     0
 76
     0
 77
     0
 78
     0
281
     0
 65
     1
110
0.0
120
0.0
130
0.0
111
1.0
121
0.0
131
0.0
112
0.0
122
1.0
132
0.0
 79
     0
146
0.0
  0
ENDTAB
  0
TABLE
  2
LTYPE
  5
5
330
0
100
AcDbSymbolTable
 70
    25
  0
LTYPE
  5
12
330
5
100
AcDbSymbolTableRecord
100
AcDbLinetypeTableRecord
  2
BYBLOCK
 70
     0
  3

 72
    65
 73
     0
 40
0.0
  0
LTYPE
  5
13
330
5
100
AcDbSymbolTableRecord
100
AcDbLinetypeTableRecord
  2
BYLAYER
 70
     0
  3

 72
    65
 73
     0
 40
0.0
  0
LTYPE
  5
14
330
5
100
AcDbSymbolTableRecord
100
AcDbLinetypeTableRecord
  2
CONTINUOUS
 70
     0
  3
Solid line
 72
    65
 73
     0
 40
0.0
  0
LTYPE
  5
20
330
5
100
AcDbSymbolTableRecord
100
AcDbLinetypeTableRecord
  2
BORDER
 70
     0
  3
__ __ . __ __ . __ __ . __ __ . __ __ . __ __ .
 72
    65
 73
     6
 40
1.75
 49
0.5
 74
     0
 49
-0.25
 74
     0
 49
0.5
 74
     0
 49
-0.25
 74
     0
 49
0.0
 74
     0
 49
-0.25
 74
     0
  0
LTYPE
  5
21
330
5
100
AcDbSymbolTableRecord
100
AcDbLinetypeTableRecord
  2
BORDER2
 70
     0
  3
__.__.__.__.__.__.__.__.__.__.__.__.__.__.__.__
 72
    65
 73
     6
 40
0.875
 49
0.25
 74
     0
 49
-0.125
 74
     0
 49
0.25
 74
     0
 49
-0.125
 74
     0
 49
0.0
 74
     0
 49
-0.125
 74
     0
  0
LTYPE
  5
22
330
5
100
AcDbSymbolTableRecord
100
AcDbLinetypeTableRecord
  2
BORDERX2
 70
     0
  3
____  ____  .  ____  ____  .  ____  ____  .  __
 72
    65
 73
     6
 40
3.5
 49
1.0
 74
     0
 49
-0.5
 74
     0
 49
1.0
 74
     0
 49
-0.5
 74
     0
 49
0.0
 74
     0
 49
-0.5
 74
     0
  0
LTYPE
  5
23
330
5
100
AcDbSymbolTableRecord
100
AcDbLinetypeTableRecord
  2
CENTER
 70
     0
  3
____ _ ____ _ ____ _ ____ _ ____ _ ____ _ ____ 
 72
    65
 73
     4
 40
2.0
 49
1.25
 74
     0
 49
-0.25
 74
     0
 49
0.25
 74
     0
 49
-0.25
 74
     0
  0
LTYPE
  5
24
330
5
100
AcDbSymbolTableRecord
100
AcDbLinetypeTableRecord
  2
CENTER2
 70
     0
  3
___ _ ___ _ ___ _ ___ _ ___ _ ___ _ ___ _ ___ _
 72
    65
 73
     4
 40
1.125
 49
0.75
 74
     0
 49
-0.125
 74
     0
 49
0.125
 74
     0
 49
-0.125
 74
     0
  0
LTYPE
  5
25
330
5
100
AcDbSymbolTableRecord
100
AcDbLinetypeTableRecord
  2
CENTERX2
 70
     0
  3
________  __  ________  __  ________  __  _____
 72
    65
 73
     4
 40
4.0
 49
2.5
 74
     0
 49
-0.5
 74
     0
 49
0.5
 74
     0
 49
-0.5
 74
     0
  0
LTYPE
  5
26
330
5
100
AcDbSymbolTableRecord
100
AcDbLinetypeTableRecord
  2
DASHDOT
 70
     0
  3
__ . __ . __ . __ . __ . __ . __ . __ . __ . __
 72
    65
 73
     4
 40
1.0
 49
0.5
 74
     0
 49
-0.25
 74
     0
 49
0.0
 74
     0
 49
-0.25
 74
     0
  0
LTYPE
  5
27
330
5
100
AcDbSymbolTableRecord
100
AcDbLinetypeTableRecord
  2
DASHDOT2
 70
     0
  3
_._._._._._._._._._._._._._._._._._._._._._._._
 72
    65
 73
     4
 40
0.5
 49
0.25
 74
     0
 49
-0.125
 74
     0
 49
0.0
 74
     0
 49
-0.125
 74
     0
  0
LTYPE
  5
28
330
5
100
AcDbSymbolTableRecord
100
AcDbLinetypeTableRecord
  2
DASHDOTX2
 70
     0
  3
____  .  ____  .  ____  .  ____  .  ____  .  __
 72
    65
 73
     4
 40
2.0
 49
1.0
 74
     0
 49
-0.5
 74
     0
 49
0.0
 74
     0
 49
-0.5
 74
     0
  0
LTYPE
  5
29
330
5
100
AcDbSymbolTableRecord
100
AcDbLinetypeTableRecord
  2
DASHED
 70
     0
  3
__ __ __ __ __ __ __ __ __ __ __ __ __ __ __ __
 72
    65
 73
     2
 40
0.75
 49
0.5
 74
     0
 49
-0.25
 74
     0
  0
LTYPE
  5
2A
330
5
100
AcDbSymbolTableRecord
100
AcDbLinetypeTableRecord
  2
DASHED2
 70
     0
  3
_ _ _ _ _ _ _ _ _ _ _ _ _ _ _ _ _ _ _ _ _ _ _ _
 72
    65
 73
     2
 40
0.375
 49
0.25
 74
     0
 49
-0.125
 74
     0
  0
LTYPE
  5
2B
330
5
100
AcDbSymbolTableRecord
100
AcDbLinetypeTableRecord
  2
DASHEDX2
 70
     0
  3
____  ____  ____  ____  ____  ____  ____  ____ 
 72
    65
 73
     2
 40
1.5
 49
1.0
 74
     0
 49
-0.5
 74
     0
  0
LTYPE
  5
2C
330
5
100
AcDbSymbolTableRecord
100
AcDbLinetypeTableRecord
  2
DIVIDE
 70
     0
  3
____ . . ____ . . ____ . . ____ . . ____ . . __
 72
    65
 73
     6
 40
1.25
 49
0.5
 74
     0
 49
-0.25
 74
     0
 49
0.0
 74
     0
 49
-0.25
 74
     0
 49
0.0
 74
     0
 49
-0.25
 74
     0
  0
LTYPE
  5
2D
330
5
100
AcDbSymbolTableRecord
100
AcDbLinetypeTableRecord
  2
DIVIDE2
 70
     0
  3
__..__..__..__..__..__..__..__..__..__..__..__.
 72
    65
 73
     6
 40
0.625
 49
0.25
 74
     0
 49
-0.125
 74
     0
 49
0.0
 74
     0
 49
-0.125
 74
     0
 49
0.0
 74
     0
 49
-0.125
 74
     0
  0
LTYPE
  5
2E
330
5
100
AcDbSymbolTableRecord
100
AcDbLinetypeTableRecord
  2
DIVIDEX2
 70
     0
  3
________  .  .  ________  .  .  ________  .  . 
 72
    65
 73
     6
 40
2.5
 49
1.0
 74
     0
 49
-0.5
 74
     0
 49
0.0
 74
     0
 49
-0.5
 74
     0
 49
0.0
 74
     0
 49
-0.5
 74
     0
  0
LTYPE
  5
2F
330
5
100
AcDbSymbolTableRecord
100
AcDbLinetypeTableRecord
  2
DOT
 70
     0
  3
. . . . . . . . . . . . . . . . . . . . . . . .
 72
    65
 73
     2
 40
0.25
 49
0.0
 74
     0
 49
-0.25
 74
     0
  0
LTYPE
  5
30
330
5
100
AcDbSymbolTableRecord
100
AcDbLinetypeTableRecord
  2
DOT2
 70
     0
  3
...............................................
 72
    65
 73
     2
 40
0.125
 49
0.0
 74
     0
 49
-0.125
 74
     0
  0
LTYPE
  5
31
330
5
100
AcDbSymbolTableRecord
100
AcDbLinetypeTableRecord
  2
DOTX2
 70
     0
  3
.  .  .  .  .  .  .  .  .  .  .  .  .  .  .  . 
 72
    65
 73
     2
 40
0.5
 49
0.0
 74
     0
 49
-0.5
 74
     0
  0
LTYPE
  5
32
330
5
100
AcDbSymbolTableRecord
100
AcDbLinetypeTableRecord
  2
HIDDEN
 70
     0
  3
__ __ __ __ __ __ __ __ __ __ __ __ __ __ __ __
 72
    65
 73
     2
 40
0.375
 49
0.25
 74
     0
 49
-0.125
 74
     0
  0
LTYPE
  5
33
330
5
100
AcDbSymbolTableRecord
100
AcDbLinetypeTableRecord
  2
HIDDEN2
 70
     0
  3
_ _ _ _ _ _ _ _ _ _ _ _ _ _ _ _ _ _ _ _ _ _ _ _
 72
    65
 73
     2
 40
0.1875
 49
0.125
 74
     0
 49
-0.0625
 74
     0
  0
LTYPE
  5
34
330
5
100
AcDbSymbolTableRecord
100
AcDbLinetypeTableRecord
  2
HIDDENX2
 70
     0
  3
____ ____ ____ ____ ____ ____ ____ ____ ____ __
 72
    65
 73
     2
 40
0.75
 49
0.5
 74
     0
 49
-0.25
 74
     0
  0
LTYPE
  5
35
330
5
100
AcDbSymbolTableRecord
100
AcDbLinetypeTableRecord
  2
PHANTOM
 70
     0
  3
______  __  __  ______  __  __  ______  __  __ 
 72
    65
 73
     6
 40
2.5
 49
1.25
 74
     0
 49
-0.25
 74
     0
 49
0.25
 74
     0
 49
-0.25
 74
     0
 49
0.25
 74
     0
 49
-0.25
 74
     0
  0
LTYPE
  5
36
330
5
100
AcDbSymbolTableRecord
100
AcDbLinetypeTableRecord
  2
PHANTOM2
 70
     0
  3
___ _ _ ___ _ _ ___ _ _ ___ _ _ ___ _ _ ___ _ _
 72
    65
 73
     6
 40
1.25
 49
0.625
 74
     0
 49
-0.125
 74
     0
 49
0.125
 74
     0
 49
-0.125
 74
     0
 49
0.125
 74
     0
 49
-0.125
 74
     0
  0
LTYPE
  5
37
330
5
100
AcDbSymbolTableRecord
100
AcDbLinetypeTableRecord
  2
PHANTOMX2
 70
     0
  3
____________    ____    ____    ____________   
 72
    65
 73
     6
 40
5.0
 49
2.5
 74
     0
 49
-0.5
 74
     0
 49
0.5
 74
     0
 49
-0.5
 74
     0
 49
0.5
 74
     0
 49
-0.5
 74
     0
  0
ENDTAB
  0
TABLE
  2
LAYER
  5
2
330
0
100
AcDbSymbolTable
 70
     2
  0
LAYER
  5
E
330
2
100
AcDbSymbolTableRecord
100
AcDbLayerTableRecord
  2
0
 70
     0
 62
     7
  6
CONTINUOUS
370
    -3
390
373
  0
LAYER
  5
39
330
2
100
AcDbSymbolTableRecord
100
AcDbLayerTableRecord
  2
LEVEL001
 70
     0
 62
     7
  6
CONTINUOUS
370
    -3
390
373
  0
ENDTAB
  0
TABLE
  2
STYLE
  5
3
330
0
100
AcDbSymbolTable
 70
     2
  0
STYLE
  5
F
330
3
100
AcDbSymbolTableRecord
100
AcDbTextStyleTableRecord
  2
STANDARD
 70
     0
 40
0.0
 41
1.0
 50
0.0
 71
     0
 42
0.2
  3
TXT
  4
BIGFONT
  0
STYLE
  5
38
330
3
100
AcDbSymbolTableRecord
100
AcDbTextStyleTableRecord
  2
STANDARD1
 70
     4
 40
0.0
 41
1.0
 50
0.0
 71
     0
 42
0.2
  3
TXT
  4
BIGFONT
  0
ENDTAB
  0
TABLE
  2
VIEW
  5
6
330
0
100
AcDbSymbolTable
 70
     0
  0
ENDTAB
  0
TABLE
  2
UCS
  5
7
330
0
100
AcDbSymbolTable
 70
     0
  0
ENDTAB
  0
TABLE
  2
APPID
  5
9
330
0
100
AcDbSymbolTable
 70
     1
  0
APPID
  5
10
330
9
100
AcDbSymbolTableRecord
100
AcDbRegAppTableRecord
  2
ACAD
 70
     0
  0
ENDTAB
  0
TABLE
  2
DIMSTYLE
  5
A
330
0
100
AcDbSymbolTable
 70
     1
100
AcDbDimStyleTable
  0
DIMSTYLE
105
1D
102
{ACAD_REACTORS
330
1B
102
}
330
A
100
AcDbSymbolTableRecord
100
AcDbDimStyleTableRecord
  2
STANDARD
 70
     0
178
     0
340
F
  0
ENDTAB
  0
TABLE
  2
BLOCK_RECORD
  5
1
330
0
100
AcDbSymbolTable
 70
     0
  0
BLOCK_RECORD
  5
18
330
1
100
AcDbSymbolTableRecord
100
AcDbBlockTableRecord
  2
*MODEL_SPACE
340
331
  0
BLOCK_RECORD
  5
15
330
1
100
AcDbSymbolTableRecord
100
AcDbBlockTableRecord
  2
*PAPER_SPACE
340
332
  0
ENDTAB
  0
ENDSEC
  0
SECTION
  2
BLOCKS
  0
BLOCK
  5
19
330
18
100
AcDbEntity
  8
0
100
AcDbBlockBegin
  2
*MODEL_SPACE
 70
     0
 10
0.0
 20
0.0
 30
0.0
  3
*MODEL_SPACE
  1
*MODEL_SPACE
  0
ENDBLK
  5
1A
330
18
100
AcDbEntity
  8
0
100
AcDbBlockEnd
  0
BLOCK
  5
16
330
15
100
AcDbEntity
 67
     1
  8
0
100
AcDbBlockBegin
  2
*PAPER_SPACE
 70
     0
 10
0.0
 20
0.0
 30
0.0
  3
*PAPER_SPACE
  1
*PAPER_SPACE
  0
ENDBLK
  5
17
330
15
100
AcDbEntity
 67
     1
  8
0
100
AcDbBlockEnd
  0
ENDSEC
  0
SECTION
  2
ENTITIES
  0
LWPOLYLINE
  5
3A
330
18
100
AcDbEntity
  8
LEVEL001
  6
Continuous
 62
     3
370
    20
100
AcDbPolyline
 90
        4
 70
     1
 43
0.0
 10
10.0
 20
10.0
 10
410.0
 20
10.0
 10
410.0
 20
287.0
 10
10.0
 20
287.0
  0
LWPOLYLINE
  5
3B
330
18
100
AcDbEntity
  8
LEVEL001
  6
Continuous
 62
     3
370
    20
100
AcDbPolyline
 90
        4
 70
     1
 43
0.0
 10
346.0
 20
10.0
 10
410.0
 20
10.0
 10
410.0
 20
287.0
 10
346.0
 20
287.0
  0
LINE
  5
3C
330
18
100
AcDbEntity
  8
LEVEL001
  6
Continuous
 62
     3
370
    20
100
AcDbLine
 10
346.0
 20
20.0
 30
0.0
 11
410.0
 21
20.0
 31
0.0
  0
LINE
  5
3D
330
18
100
AcDbEntity
  8
LEVEL001
  6
Continuous
 62
     3
370
    20
100
AcDbLine
 10
346.0
 20
30.0
 30
0.0
 11
410.0
 21
30.0
 31
0.0
  0
LINE
  5
3E
330
18
100
AcDbEntity
  8
LEVEL001
  6
Continuous
 62
     3
370
    20
100
AcDbLine
 10
346.0
 20
40.0
 30
0.0
 11
410.0
 21
40.0
 31
0.0
  0
LINE
  5
3F
330
18
100
AcDbEntity
  8
LEVEL001
  6
Continuous
 62
     3
370
    20
100
AcDbLine
 10
346.0
 20
50.0
 30
0.0
 11
410.0
 21
50.0
 31
0.0
  0
LINE
  5
40
330
18
100
AcDbEntity
  8
LEVEL001
  6
Continuous
 62
     3
370
    20
100
AcDbLine
 10
346.0
 20
60.0
 30
0.0
 11
410.0
 21
60.0
 31
0.0
  0
TEXT
  5
41
330
18
100
AcDbEntity
  8
LEVEL001
 62
     3
370
    20
100
AcDbText
 10
349.97305288127
 20
230.40689837639
 30
0.0
 40
3.0
  1
 制
 41
0.75
 72
     5
 11
354.47305288127
 21
230.40689837639
 31
0.0
100
AcDbText
  0
TEXT
  5
42
330
18
100
AcDbEntity
  8
LEVEL001
 62
     3
370
    20
100
AcDbText
 10
349.97305288127
 20
226.40689837639
 30
0.0
 40
3.0
  1
 定
 41
0.75
 72
     5
 11
354.47305288127
 21
226.40689837639
 31
0.0
100
AcDbText
  0
TEXT
  5
43
330
18
100
AcDbEntity
  8
LEVEL001
 62
     3
370
    20
100
AcDbText
 10
349.97305288127
 20
222.40689837639
 30
0.0
 40
3.0
  1
 風
 41
0.75
 72
     5
 11
354.47305288127
 21
222.40689837639
 31
0.0
100
AcDbText
  0
TEXT
  5
44
330
18
100
AcDbEntity
  8
LEVEL001
 62
     3
370
    20
100
AcDbText
 10
349.97305288127
 20
218.40689837639
 30
0.0
 40
3.0
  1
 速
 41
0.75
 72
     5
 11
354.47305288127
 21
218.40689837639
 31
0.0
100
AcDbText
  0
TEXT
  5
45
330
18
100
AcDbEntity
  8
LEVEL001
 62
     3
370
    20
100
AcDbText
 10
349.97305288127
 20
214.40689837639
 30
0.0
 40
3.0
  1
(Vo)
 41
0.5
 72
     5
 11
355.97305288127
 21
214.40689837639
 31
0.0
100
AcDbText
  0
LINE
  5
46
330
18
100
AcDbEntity
  8
LEVEL001
  6
Continuous
 62
     3
370
    20
100
AcDbLine
 10
346.0
 20
90.0
 30
0.0
 11
410.0
 21
90.0
 31
0.0
  0
LINE
  5
47
330
18
100
AcDbEntity
  8
LEVEL001
  6
Continuous
 62
     3
370
    20
100
AcDbLine
 10
346.0
 20
85.0
 30
0.0
 11
410.0
 21
85.0
 31
0.0
  0
LINE
  5
48
330
18
100
AcDbEntity
  8
LEVEL001
  6
Continuous
 62
     3
370
    20
100
AcDbLine
 10
346.0
 20
95.0
 30
0.0
 11
410.0
 21
95.0
 31
0.0
  0
LINE
  5
49
330
18
100
AcDbEntity
  8
LEVEL001
  6
Continuous
 62
     3
370
    20
100
AcDbLine
 10
346.0
 20
100.0
 30
0.0
 11
410.0
 21
100.0
 31
0.0
  0
LINE
  5
4A
330
18
100
AcDbEntity
  8
LEVEL001
  6
Continuous
 62
     3
370
    20
100
AcDbLine
 10
346.0
 20
110.0
 30
0.0
 11
410.0
 21
110.0
 31
0.0
  0
LINE
  5
4B
330
18
100
AcDbEntity
  8
LEVEL001
  6
Continuous
 62
     3
370
    20
100
AcDbLine
 10
346.0
 20
120.0
 30
0.0
 11
410.0
 21
120.0
 31
0.0
  0
LINE
  5
4C
330
18
100
AcDbEntity
  8
LEVEL001
  6
Continuous
 62
     3
370
    20
100
AcDbLine
 10
346.0
 20
130.0
 30
0.0
 11
410.0
 21
130.0
 31
0.0
  0
LINE
  5
4D
330
18
100
AcDbEntity
  8
LEVEL001
  6
Continuous
 62
     3
370
    20
100
AcDbLine
 10
346.0
 20
140.0
 30
0.0
 11
410.0
 21
140.0
 31
0.0
  0
LINE
  5
4E
330
18
100
AcDbEntity
  8
LEVEL001
  6
Continuous
 62
     3
370
    20
100
AcDbLine
 10
354.0
 20
100.0
 30
0.0
 11
354.0
 21
80.0
 31
0.0
  0
LINE
  5
4F
330
18
100
AcDbEntity
  8
LEVEL001
  6
Continuous
 62
     3
370
    20
100
AcDbLine
 10
346.0
 20
105.0
 30
0.0
 11
410.0
 21
105.0
 31
0.0
  0
LINE
  5
50
330
18
100
AcDbEntity
  8
LEVEL001
  6
Continuous
 62
     3
370
    20
100
AcDbLine
 10
346.0
 20
115.0
 30
0.0
 11
410.0
 21
115.0
 31
0.0
  0
LINE
  5
51
330
18
100
AcDbEntity
  8
LEVEL001
  6
Continuous
 62
     3
370
    20
100
AcDbLine
 10
346.0
 20
125.0
 30
0.0
 11
410.0
 21
125.0
 31
0.0
  0
LINE
  5
52
330
18
100
AcDbEntity
  8
LEVEL001
  6
Continuous
 62
     3
370
    20
100
AcDbLine
 10
346.0
 20
135.0
 30
0.0
 11
410.0
 21
135.0
 31
0.0
  0
LINE
  5
53
330
18
100
AcDbEntity
  8
LEVEL001
  6
Continuous
 62
     3
370
    20
100
AcDbLine
 10
380.0
 20
100.0
 30
0.0
 11
380.0
 21
85.0
 31
0.0
  0
LINE
  5
54
330
18
100
AcDbEntity
  8
LEVEL001
  6
Continuous
 62
     3
370
    20
100
AcDbLine
 10
351.0
 20
140.0
 30
0.0
 11
351.0
 21
100.0
 31
0.0
  0
LINE
  5
55
330
18
100
AcDbEntity
  8
LEVEL001
  6
Continuous
 62
     3
370
    20
100
AcDbLine
 10
381.0
 20
140.0
 30
0.0
 11
381.0
 21
100.0
 31
0.0
  0
LINE
  5
56
330
18
100
AcDbEntity
  8
LEVEL001
  6
Continuous
 62
     3
370
    20
100
AcDbLine
 10
386.0
 20
140.0
 30
0.0
 11
386.0
 21
100.0
 31
0.0
  0
LINE
  5
57
330
18
100
AcDbEntity
  8
LEVEL001
  6
Continuous
 62
     3
370
    20
100
AcDbLine
 10
346.0
 20
80.0
 30
0.0
 11
410.0
 21
80.0
 31
0.0
  0
TEXT
  5
58
330
18
100
AcDbEntity
  8
LEVEL001
 62
     3
370
    20
100
AcDbText
 10
347.75
 20
116.0
 30
0.0
 40
3.0
  1
２
 41
0.5
 72
     5
 11
349.25
 21
116.0
 31
0.0
100
AcDbText
  0
TEXT
  5
59
330
18
100
AcDbEntity
  8
LEVEL001
 62
     3
370
    20
100
AcDbText
 10
346.25
 20
111.0
 30
0.0
 40
3.0
  1
１－２
 41
0.5
 72
     5
 11
350.75
 21
111.0
 31
0.0
100
AcDbText
  0
TEXT
  5
5A
330
18
100
AcDbEntity
  8
LEVEL001
 62
     3
370
    20
100
AcDbText
 10
346.25
 20
106.0
 30
0.0
 40
3.0
  1
１－１
 41
0.5
 72
     5
 11
350.75
 21
106.0
 31
0.0
100
AcDbText
  0
TEXT
  5
5B
330
18
100
AcDbEntity
  8
LEVEL001
 62
     3
370
    20
100
AcDbText
 10
382.75
 20
106.0
 30
0.0
 40
3.0
  1
１
 41
0.5
 72
     5
 11
384.25
 21
106.0
 31
0.0
100
AcDbText
  0
TEXT
  5
5C
330
18
100
AcDbEntity
  8
LEVEL001
 62
     3
370
    20
100
AcDbText
 10
382.75
 20
111.0
 30
0.0
 40
3.0
  1
１
 41
0.5
 72
     5
 11
384.25
 21
111.0
 31
0.0
100
AcDbText
  0
TEXT
  5
5D
330
18
100
AcDbEntity
  8
LEVEL001
 62
     3
370
    20
100
AcDbText
 10
382.75
 20
116.0
 30
0.0
 40
3.0
  1
１
 41
0.5
 72
     5
 11
384.25
 21
116.0
 31
0.0
100
AcDbText
  0
TEXT
  5
5E
330
18
100
AcDbEntity
  8
LEVEL001
 62
     3
370
    20
100
AcDbText
 10
293.06192480268
 20
45.876099498991
 30
0.0
 40
5.0
  1
Ｓ＝１：５
 41
0.58
 72
     5
 11
307.56192480268
 21
45.876099498991
 31
0.0
100
AcDbText
  0
TEXT
  5
5F
330
18
100
AcDbEntity
  8
LEVEL001
 62
     3
370
    20
100
AcDbText
 10
275.81192480268
 20
51.876099498991
 30
0.0
 40
5.0
  1
グランドカバー詳細
 41
1.0888888888889
 72
     5
 11
324.81192480268
 21
51.876099498991
 31
0.0
100
AcDbText
  0
LINE
  5
60
330
18
100
AcDbEntity
  8
LEVEL001
  6
Continuous
 62
     3
370
    20
100
AcDbLine
 10
273.31192480268
 20
50.876099498991
 30
0.0
 11
327.31192480268
 21
50.876099498991
 31
0.0
  0
LINE
  5
61
330
18
100
AcDbEntity
  8
LEVEL001
  6
DASHDOT
 62
     1
370
    15
100
AcDbLine
 10
301.49701451906
 20
126.15190539389
 30
0.0
 11
301.49701451906
 21
81.494603215024
 31
0.0
  0
POINT
  5
62
330
18
100
AcDbEntity
  8
LEVEL001
 62
     3
100
AcDbPoint
 10
301.49701451906
 20
103.79522752805
 30
0.0
  0
TEXT
  5
63
330
18
100
AcDbEntity
  8
LEVEL001
 62
     3
370
    20
100
AcDbText
 10
347.0
 20
26.0
 30
0.0
 40
3.0
  1
図面Ｎｏ．
 72
     5
 11
362.0
 21
26.0
 31
0.0
100
AcDbText
  0
TEXT
  5
64
330
18
100
AcDbEntity
  8
LEVEL001
 62
     3
370
    20
100
AcDbText
 10
347.0
 20
36.0
 30
0.0
 40
3.0
  1
品名コード
 72
     5
 11
362.0
 21
36.0
 31
0.0
100
AcDbText
  0
TEXT
  5
65
330
18
100
AcDbEntity
  8
LEVEL001
 62
     3
370
    20
100
AcDbText
 10
347.0
 20
46.0
 30
0.0
 40
3.0
  1
型式
 72
     5
 11
353.0
 21
46.0
 31
0.0
100
AcDbText
  0
TEXT
  5
66
330
18
100
AcDbEntity
  8
LEVEL001
 62
     3
370
    20
100
AcDbText
 10
347.0
 20
56.0
 30
0.0
 40
3.0
  1
品名
 72
     5
 11
353.0
 21
56.0
 31
0.0
100
AcDbText
  0
TEXT
  5
67
330
18
100
AcDbEntity
  8
LEVEL001
 62
     3
370
    20
100
AcDbText
 10
347.0
 20
76.0
 30
0.0
 40
3.0
  1
件名
 72
     5
 11
353.0
 21
76.0
 31
0.0
100
AcDbText
  0
TEXT
  5
68
330
18
100
AcDbEntity
  8
LEVEL001
 62
     3
370
    20
100
AcDbText
 10
346.75
 20
81.0
 30
0.0
 40
3.0
  1
尺度
 72
     5
 11
352.75
 21
81.0
 31
0.0
100
AcDbText
  0
TEXT
  5
69
330
18
100
AcDbEntity
  8
LEVEL001
 62
     3
370
    20
100
AcDbText
 10
346.75
 20
86.0
 30
0.0
 40
3.0
  1
承認
 72
     5
 11
352.75
 21
86.0
 31
0.0
100
AcDbText
  0
TEXT
  5
6A
330
18
100
AcDbEntity
  8
LEVEL001
 62
     3
370
    20
100
AcDbText
 10
346.75
 20
91.0
 30
0.0
 40
3.0
  1
審査
 72
     5
 11
352.75
 21
91.0
 31
0.0
100
AcDbText
  0
TEXT
  5
6B
330
18
100
AcDbEntity
  8
LEVEL001
 62
     3
370
    20
100
AcDbText
 10
346.75
 20
96.0
 30
0.0
 40
3.0
  1
作成
 72
     5
 11
352.75
 21
96.0
 31
0.0
100
AcDbText
  0
TEXT
  5
6C
330
18
100
AcDbEntity
  8
LEVEL001
 62
     3
370
    20
100
AcDbText
 10
346.0
 20
101.0
 30
0.0
 40
3.0
  1
品番
 41
0.83333333333333
 72
     5
 11
351.0
 21
101.0
 31
0.0
100
AcDbText
  0
TEXT
  5
6D
330
18
100
AcDbEntity
  8
LEVEL001
 62
     3
370
    20
100
AcDbText
 10
357.5
 20
101.0
 30
0.0
 40
3.0
  1
品　　　名
 72
     5
 11
372.5
 21
101.0
 31
0.0
100
AcDbText
  0
TEXT
  5
6E
330
18
100
AcDbEntity
  8
LEVEL001
 62
     3
370
    20
100
AcDbText
 10
381.0
 20
101.0
 30
0.0
 40
3.0
  1
数量
 41
0.83333333333333
 72
     5
 11
386.0
 21
101.0
 31
0.0
100
AcDbText
  0
TEXT
  5
6F
330
18
100
AcDbEntity
  8
LEVEL001
 62
     3
370
    20
100
AcDbText
 10
389.5
 20
101.0
 30
0.0
 40
3.0
  1
材　　　質
 72
     5
 11
404.5
 21
101.0
 31
0.0
100
AcDbText
  0
TEXT
  5
70
330
18
100
AcDbEntity
  8
LEVEL001
 62
     3
370
    20
100
AcDbText
 10
352.0
 20
116.0
 30
0.0
 40
3.0
  1
キャップ
 72
     5
 11
364.0
 21
116.0
 31
0.0
100
AcDbText
  0
TEXT
  5
71
330
18
100
AcDbEntity
  8
LEVEL001
 62
     3
370
    20
100
AcDbText
 10
356.6
 20
51.0
 30
0.0
 40
4.0
  1
アルミニウム合金製旗用ポール
 41
0.875
 72
     5
 11
405.6
 21
51.0
 31
0.0
100
AcDbText
  0
LINE
  5
72
330
18
100
AcDbEntity
  8
LEVEL001
  6
Continuous
 62
     3
370
    20
100
AcDbLine
 10
274.07426331501
 20
96.495227528045
 30
0.0
 11
279.07426331501
 21
87.834973490201
 31
0.0
  0
LINE
  5
73
330
18
100
AcDbEntity
  8
LEVEL001
  6
Continuous
 62
     3
370
    20
100
AcDbLine
 10
275.63075816537
 20
87.834973490201
 30
0.0
 11
277.35251074019
 21
90.817136427849
 31
0.0
  0
LINE
  5
74
330
18
100
AcDbEntity
  8
LEVEL001
  6
Continuous
 62
     3
370
    20
100
AcDbLine
 10
272.33075816537
 20
87.834973490201
 30
0.0
 11
275.70251074019
 21
93.675020260338
 31
0.0
  0
LINE
  5
75
330
18
100
AcDbEntity
  8
LEVEL001
  6
Continuous
 62
     3
370
    20
100
AcDbLine
 10
269.07426331501
 20
87.834973490201
 30
0.0
 11
274.07426331501
 21
96.495227528045
 31
0.0
  0
LINE
  5
76
330
18
100
AcDbEntity
  8
LEVEL001
  6
Continuous
 62
     3
370
    20
100
AcDbLine
 10
267.37426331501
 20
96.495227528045
 30
0.0
 11
270.72426331501
 21
90.692857322689
 31
0.0
  0
LINE
  5
77
330
18
100
AcDbEntity
  8
LEVEL001
  6
Continuous
 62
     3
370
    20
100
AcDbLine
 10
270.67426331501
 20
96.495227528045
 30
0.0
 11
272.37426331501
 21
93.550741155178
 31
0.0
  0
LINE
  5
78
330
18
100
AcDbEntity
  8
LEVEL001
  6
Continuous
 62
     3
370
    20
100
AcDbLine
 10
277.37426331501
 20
96.495227528045
 30
0.0
 11
279.03701451906
 21
93.61525796229
 31
0.0
  0
LINE
  5
79
330
18
100
AcDbEntity
  8
LEVEL001
  6
Continuous
 62
     3
370
    20
100
AcDbLine
 10
274.07426331501
 20
96.495227528045
 30
0.0
 11
267.37426331501
 21
96.495227528045
 31
0.0
  0
ARC
  5
7A
330
18
100
AcDbEntity
  8
LEVEL001
  6
Continuous
 62
     3
370
    20
100
AcDbCircle
 10
316.49701451906
 20
99.695227528045
 30
0.0
 40
7.0
100
AcDbArc
 50
0.0
 51
90.0
  0
ARC
  5
7B
330
18
100
AcDbEntity
  8
LEVEL001
  6
Continuous
 62
     3
370
    20
100
AcDbCircle
 10
316.49701451906
 20
99.695227528045
 30
0.0
 40
7.4
100
AcDbArc
 50
0.0
 51
90.000000000001
  0
POINT
  5
7C
330
18
100
AcDbEntity
  8
LEVEL001
 62
     3
100
AcDbPoint
 10
323.49701451906
 20
106.69522752805
 30
0.0
  0
LINE
  5
7D
330
18
100
AcDbEntity
  8
LEVEL001
  6
Continuous
 62
     3
370
    20
100
AcDbLine
 10
323.49701451906
 20
99.695227528045
 30
0.0
 11
323.49701451906
 21
96.495227528045
 31
0.0
  0
POINT
  5
7E
330
18
100
AcDbEntity
  8
LEVEL001
 62
     3
100
AcDbPoint
 10
323.89701451906
 20
107.09522752805
 30
0.0
  0
LINE
  5
7F
330
18
100
AcDbEntity
  8
LEVEL001
  6
Continuous
 62
     3
370
    20
100
AcDbLine
 10
323.89701451906
 20
99.695227528045
 30
0.0
 11
323.89701451906
 21
96.495227528045
 31
0.0
  0
ARC
  5
80
330
18
100
AcDbEntity
  8
LEVEL001
  6
Continuous
 62
     3
370
    20
100
AcDbCircle
 10
286.49701451906
 20
99.695227528045
 30
0.0
 40
7.4
100
AcDbArc
 50
90.000000000001
 51
180.0
  0
LINE
  5
81
330
18
100
AcDbEntity
  8
LEVEL001
  6
Continuous
 62
     3
370
    20
100
AcDbLine
 10
279.09701451906
 20
99.695227528045
 30
0.0
 11
279.09701451906
 21
96.495227528045
 31
0.0
  0
LINE
  5
82
330
18
100
AcDbEntity
  8
LEVEL001
  6
Continuous
 62
     3
370
    20
100
AcDbLine
 10
301.49701451906
 20
107.09522752805
 30
0.0
 11
286.49701451906
 21
107.09522752805
 31
0.0
  0
LINE
  5
83
330
18
100
AcDbEntity
  8
LEVEL001
  6
Continuous
 62
     3
370
    20
100
AcDbLine
 10
301.49701451906
 20
96.495227528045
 30
0.0
 11
279.09701451906
 21
96.495227528045
 31
0.0
  0
LINE
  5
84
330
18
100
AcDbEntity
  8
LEVEL001
  6
Continuous
 62
     3
370
    20
100
AcDbLine
 10
279.09701451906
 20
96.495227528045
 30
0.0
 11
277.37426331501
 21
96.495227528045
 31
0.0
  0
TEXT
  5
85
330
18
100
AcDbEntity
  8
LEVEL001
 62
     3
370
    20
100
AcDbText
 10
352.0
 20
111.0
 30
0.0
 40
3.0
  1
先端ポール
 72
     5
 11
367.0
 21
111.0
 31
0.0
100
AcDbText
  0
TEXT
  5
86
330
18
100
AcDbEntity
  8
LEVEL001
 62
     3
370
    20
100
AcDbText
 10
352.0
 20
106.0
 30
0.0
 40
3.0
  1
根元ポール
 72
     5
 11
367.0
 21
106.0
 31
0.0
100
AcDbText
  0
TEXT
  5
87
330
18
100
AcDbEntity
  8
LEVEL001
 62
     3
370
    20
100
AcDbText
 10
262.31192480268
 20
33.716981116641
 30
0.0
 40
4.0
  1
※グランドカバーは、ポール埋込部の
 41
1.1176470588235
 72
     5
 11
338.31192480268
 21
33.716981116641
 31
0.0
100
AcDbText
  0
TEXT
  5
88
330
18
100
AcDbEntity
  8
LEVEL001
 62
     3
370
    20
100
AcDbText
 10
262.31192480268
 20
28.383647783307
 30
0.0
 40
4.0
  1
　化粧用で、別梱包部品です。
 41
1.1160714285714
 72
     5
 11
324.81192480268
 21
28.383647783307
 31
0.0
100
AcDbText
  0
LINE
  5
89
330
18
100
AcDbEntity
  8
LEVEL001
  6
Continuous
 62
     3
370
    20
100
AcDbLine
 10
310.49701451906
 20
107.09522752805
 30
0.0
 11
316.49701451906
 21
107.09522752805
 31
0.0
  0
LINE
  5
8A
330
18
100
AcDbEntity
  8
LEVEL001
  6
Continuous
 62
     3
370
    20
100
AcDbLine
 10
310.49701451906
 20
106.69522752805
 30
0.0
 11
316.49701451906
 21
106.69522752805
 31
0.0
  0
LINE
  5
8B
330
18
100
AcDbEntity
  8
LEVEL001
  6
Continuous
 62
     3
370
    20
100
AcDbLine
 10
310.79701451906
 20
106.69522752805
 30
0.0
 11
310.79701451906
 21
107.09522752805
 31
0.0
  0
LINE
  5
8C
330
18
100
AcDbEntity
  8
LEVEL001
  6
Continuous
 62
     3
370
    20
100
AcDbLine
 10
323.89701451906
 20
96.495227528045
 30
0.0
 11
310.49701451906
 21
96.495227528045
 31
0.0
  0
LINE
  5
8D
330
18
100
AcDbEntity
  8
LEVEL001
  6
Continuous
 62
     3
370
    20
100
AcDbLine
 10
292.49701451906
 20
123.09522752805
 30
0.0
 11
292.49701451906
 21
107.09522752805
 31
0.0
  0
ARC
  5
8E
330
18
100
AcDbEntity
  8
LEVEL001
  6
Continuous
 62
     3
370
    20
100
AcDbCircle
 10
296.99701451906
 20
115.30099889398
 30
0.0
 40
9.0000000000002
100
AcDbArc
 50
60.00000000000299
 51
120.0
  0
ARC
  5
8F
330
18
100
AcDbEntity
  8
LEVEL001
  6
Continuous
 62
     3
370
    20
100
AcDbCircle
 10
296.99701451906
 20
130.8894561621
 30
0.0
 40
8.9999999999997
100
AcDbArc
 50
240.0
 51
300.0
  0
ARC
  5
90
330
18
100
AcDbEntity
  8
LEVEL001
  6
Continuous
 62
     3
370
    20
100
AcDbCircle
 10
296.99701451906
 20
115.30099889398
 30
0.0
 40
8.4000000000002
100
AcDbArc
 50
62.62544847607799
 51
117.37455152392
  0
ARC
  5
91
330
18
100
AcDbEntity
  8
LEVEL001
  6
Continuous
 62
     3
370
    20
100
AcDbCircle
 10
305.99701451906
 20
115.30099889398
 30
0.0
 40
9.0000000000004
100
AcDbArc
 50
60.000000000005
 51
120.0
  0
ARC
  5
92
330
18
100
AcDbEntity
  8
LEVEL001
  6
Continuous
 62
     3
370
    20
100
AcDbCircle
 10
305.99701451906
 20
76.950030661671
 30
0.0
 40
9.0000000000004
100
AcDbArc
 50
60.000000000005
 51
120.0
  0
ARC
  5
93
330
18
100
AcDbEntity
  8
LEVEL001
  6
Continuous
 62
     3
370
    20
100
AcDbCircle
 10
296.99701451906
 20
92.538487929791
 30
0.0
 40
8.9999999999997
100
AcDbArc
 50
240.0
 51
300.0
  0
LINE
  5
94
330
18
100
AcDbEntity
  8
LEVEL001
  6
Continuous
 62
     3
370
    20
100
AcDbLine
 10
310.49701451906
 20
123.09522752805
 30
0.0
 11
310.49701451906
 21
84.744259295731
 31
0.0
  0
LINE
  5
95
330
18
100
AcDbEntity
  8
LEVEL001
  6
Continuous
 62
     3
370
    20
100
AcDbLine
 10
309.89701451906
 20
123.41495121846
 30
0.0
 11
309.89701451906
 21
85.061134162429
 31
0.0
  0
LINE
  5
96
330
18
100
AcDbEntity
  8
LEVEL001
  6
Continuous
 62
     3
370
    20
100
AcDbLine
 10
292.49701451906
 20
96.495227528045
 30
0.0
 11
292.49701451906
 21
84.744259295732
 31
0.0
  0
TEXT
  5
97
330
18
100
AcDbEntity
  8
LEVEL001
 62
     3
370
    20
100
AcDbText
 10
356.6
 20
81.0
 30
0.0
 40
3.0
  1
１：５　１：３０
 72
     5
 11
380.6
 21
81.0
 31
0.0
100
AcDbText
  0
LINE
  5
98
330
18
100
AcDbEntity
  8
LEVEL001
  6
Continuous
 62
     3
370
    20
100
AcDbLine
 10
106.71048142596
 20
168.41556328355
 30
0.0
 11
109.71048142596
 21
168.41556328351
 31
0.0
  0
LINE
  5
99
330
18
100
AcDbEntity
  8
LEVEL001
  6
Continuous
 62
     3
370
    20
100
AcDbLine
 10
105.71048142596
 20
62.870260766639
 30
0.0
 11
101.54381475929
 21
60.464634645016
 31
0.0
  0
LINE
  5
9A
330
18
100
AcDbEntity
  8
LEVEL001
  6
Continuous
 62
     3
370
    20
100
AcDbLine
 10
105.71048142596
 20
62.292910497486
 30
0.0
 11
101.54381475929
 21
59.887284375862
 31
0.0
  0
LINE
  5
9B
330
18
100
AcDbEntity
  8
LEVEL001
  6
Continuous
 62
     3
370
    20
100
AcDbLine
 10
105.71048142596
 20
61.715560228296
 30
0.0
 11
101.54381475929
 21
59.309934106673
 31
0.0
  0
LINE
  5
9C
330
18
100
AcDbEntity
  8
LEVEL001
  6
Continuous
 62
     3
370
    20
100
AcDbLine
 10
114.87714809263
 20
48.938197779122
 30
0.0
 11
110.71048142596
 21
46.532571657498
 31
0.0
  0
LINE
  5
9D
330
18
100
AcDbEntity
  8
LEVEL001
  6
Continuous
 62
     3
370
    20
100
AcDbLine
 10
114.87714809263
 20
48.360847509932
 30
0.0
 11
110.71048142596
 21
45.955221388309
 31
0.0
  0
LINE
  5
9E
330
18
100
AcDbEntity
  8
LEVEL001
  6
Continuous
 62
     3
370
    20
100
AcDbLine
 10
114.87714809263
 20
68.162638234211
 30
0.0
 11
110.71048142596
 21
65.757012112587
 31
0.0
  0
LINE
  5
9F
330
18
100
AcDbEntity
  8
LEVEL001
  6
Continuous
 62
     3
370
    20
100
AcDbLine
 10
114.87714809263
 20
67.585287965057
 30
0.0
 11
110.71048142596
 21
65.179661843434
 31
0.0
  0
LINE
  5
A0
330
18
100
AcDbEntity
  8
LEVEL001
  6
Continuous
 62
     3
370
    20
100
AcDbLine
 10
114.87714809263
 20
67.007937695867
 30
0.0
 11
110.71048142596
 21
64.602311574244
 31
0.0
  0
LINE
  5
A1
330
18
100
AcDbEntity
  8
LEVEL001
  6
Continuous
 62
     3
370
    20
100
AcDbLine
 10
100.94223446063
 20
65.528811937583
 30
0.0
 11
101.54381475929
 21
66.570779579708
 31
0.0
  0
LINE
  5
A2
330
18
100
AcDbEntity
  8
LEVEL001
  6
Continuous
 62
     3
370
    20
100
AcDbLine
 10
115.97714809263
 20
68.415563283532
 30
0.0
 11
117.09381475929
 21
66.481439881746
 31
0.0
  0
LINE
  5
A3
330
18
100
AcDbEntity
  8
LEVEL001
  6
Continuous
 62
     3
370
    20
100
AcDbLine
 10
114.87714809263
 20
68.415563283532
 30
0.0
 11
116.54381475929
 21
65.528811937583
 31
0.0
  0
LINE
  5
A4
330
18
100
AcDbEntity
  8
LEVEL001
  6
Continuous
 62
     3
370
    20
100
AcDbLine
 10
116.54381475929
 20
65.528811937583
 30
0.0
 11
118.21048142596
 21
68.415563283532
 31
0.0
  0
LINE
  5
A5
330
18
100
AcDbEntity
  8
LEVEL001
  6
Continuous
 62
     3
370
    20
100
AcDbLine
 10
118.21048142596
 20
68.415563283532
 30
0.0
 11
119.87714809263
 21
65.528811937583
 31
0.0
  0
LINE
  5
A6
330
18
100
AcDbEntity
  8
LEVEL001
  6
Continuous
 62
     3
370
    20
100
AcDbLine
 10
117.62931304275
 20
65.528811937583
 30
0.0
 11
118.75323056769
 21
67.475494194296
 31
0.0
  0
LINE
  5
A7
330
18
100
AcDbEntity
  8
LEVEL001
  6
Continuous
 62
     3
370
    20
100
AcDbLine
 10
118.72931304275
 20
65.528811937583
 30
0.0
 11
119.30323056769
 21
66.522866250133
 31
0.0
  0
LINE
  5
A8
330
18
100
AcDbEntity
  8
LEVEL001
  6
Continuous
 62
     3
370
    20
100
AcDbLine
 10
119.87714809263
 20
65.528811937583
 30
0.0
 11
121.54381475929
 21
68.415563283532
 31
0.0
  0
LINE
  5
A9
330
18
100
AcDbEntity
  8
LEVEL001
  6
Continuous
 62
     3
370
    20
100
AcDbLine
 10
119.31048142596
 20
68.415563283532
 30
0.0
 11
120.42714809263
 21
66.481439881746
 31
0.0
  0
LINE
  5
AA
330
18
100
AcDbEntity
  8
LEVEL001
  6
Continuous
 62
     3
370
    20
100
AcDbLine
 10
121.54381475929
 20
68.415563283532
 30
0.0
 11
123.21048142596
 21
65.528811937583
 31
0.0
  0
LINE
  5
AB
330
18
100
AcDbEntity
  8
LEVEL001
  6
Continuous
 62
     3
370
    20
100
AcDbLine
 10
120.96264637608
 20
65.528811937583
 30
0.0
 11
122.08656390102
 21
67.475494194296
 31
0.0
  0
LINE
  5
AC
330
18
100
AcDbEntity
  8
LEVEL001
  6
Continuous
 62
     3
370
    20
100
AcDbLine
 10
122.06264637608
 20
65.528811937583
 30
0.0
 11
122.63656390102
 21
66.522866250133
 31
0.0
  0
LINE
  5
AD
330
18
100
AcDbEntity
  8
LEVEL001
  6
Continuous
 62
     3
370
    20
100
AcDbLine
 10
115.39597970941
 20
65.528811937583
 30
0.0
 11
115.96989723435
 21
66.522866250133
 31
0.0
  0
LINE
  5
AE
330
18
100
AcDbEntity
  8
LEVEL001
  6
Continuous
 62
     3
370
    20
100
AcDbLine
 10
114.87714809263
 20
66.53542510506
 30
0.0
 11
115.41989723435
 21
67.475494194296
 31
0.0
  0
LINE
  5
AF
330
18
100
AcDbEntity
  8
LEVEL001
  6
Continuous
 62
     3
370
    20
100
AcDbLine
 10
117.07714809263
 20
68.415563283532
 30
0.0
 11
117.64381475929
 21
67.434067825909
 31
0.0
  0
LINE
  5
B0
330
18
100
AcDbEntity
  8
LEVEL001
  6
Continuous
 62
     3
370
    20
100
AcDbLine
 10
120.41048142596
 20
68.415563283532
 30
0.0
 11
120.97714809263
 21
67.434067825909
 31
0.0
  0
LINE
  5
B1
330
18
100
AcDbEntity
  8
LEVEL001
  6
Continuous
 62
     3
370
    20
100
AcDbLine
 10
122.64381475929
 20
68.415563283532
 30
0.0
 11
123.76048142596
 21
66.481439881746
 31
0.0
  0
LINE
  5
B2
330
18
100
AcDbEntity
  8
LEVEL001
  6
Continuous
 62
     3
370
    20
100
AcDbLine
 10
123.74381475929
 20
68.415563283532
 30
0.0
 11
124.31048142596
 21
67.434067825909
 31
0.0
  0
LINE
  5
B3
330
18
100
AcDbEntity
  8
LEVEL001
  6
Continuous
 62
     3
370
    20
100
AcDbLine
 10
101.54381475929
 20
68.415563283532
 30
0.0
 11
91.523402843838
 21
68.415563283532
 31
0.0
  0
LINE
  5
B4
330
18
100
AcDbEntity
  8
LEVEL001
  6
Continuous
 62
     3
370
    20
100
AcDbLine
 10
114.87714809263
 20
68.415563283532
 30
0.0
 11
128.90175748697
 21
68.415563283532
 31
0.0
  0
TEXT
  5
B5
330
18
100
AcDbEntity
  8
LEVEL001
 62
     3
370
    20
100
AcDbText
 10
122.95359592206
 20
69.031814323605
 30
0.0
 40
4.0
  1
ＧＬ
 72
     5
 11
130.95359592206
 21
69.031814323605
 31
0.0
100
AcDbText
  0
ARC
  5
B6
330
18
100
AcDbEntity
  8
LEVEL001
  6
Continuous
 62
     3
370
    20
100
AcDbCircle
 10
110.71048142596
 20
68.948896616865
 30
0.0
 40
1.2333333333333
100
AcDbArc
 50
0.0
 51
89.999999999999
  0
LINE
  5
B7
330
18
100
AcDbEntity
  8
LEVEL001
  6
Continuous
 62
     3
370
    20
100
AcDbLine
 10
111.94381475929
 20
68.948896616865
 30
0.0
 11
111.94381475929
 21
68.415563283532
 31
0.0
  0
LINE
  5
B8
330
18
100
AcDbEntity
  8
LEVEL001
  6
Continuous
 62
     3
370
    20
100
AcDbLine
 10
108.21048142596
 20
68.415563283532
 30
0.0
 11
104.47714809263
 21
68.415563283532
 31
0.0
  0
ARC
  5
B9
330
18
100
AcDbEntity
  8
LEVEL001
  6
Continuous
 62
     3
370
    20
100
AcDbCircle
 10
105.71048142596
 20
68.948896616865
 30
0.0
 40
1.2333333333333
100
AcDbArc
 50
89.999999999999
 51
180.0
  0
LINE
  5
BA
330
18
100
AcDbEntity
  8
LEVEL001
  6
Continuous
 62
     3
370
    20
100
AcDbLine
 10
104.47714809263
 20
68.948896616865
 30
0.0
 11
104.47714809263
 21
68.415563283532
 31
0.0
  0
LINE
  5
BB
330
18
100
AcDbEntity
  8
LEVEL001
  6
Continuous
 62
     3
370
    20
100
AcDbLine
 10
108.21048142596
 20
70.182229950198
 30
0.0
 11
105.71048142596
 21
70.182229950198
 31
0.0
  0
LINE
  5
BC
330
18
100
AcDbEntity
  8
LEVEL001
  6
Continuous
 62
     3
370
    20
100
AcDbLine
 10
108.21048142596
 20
70.182229950198
 30
0.0
 11
110.71048142596
 21
70.182229950198
 31
0.0
  0
LWPOLYLINE
  5
BD
330
18
100
AcDbEntity
  8
LEVEL001
  6
Continuous
 62
     3
370
    20
100
AcDbPolyline
 90
        4
 70
     0
 43
0.0
 10
101.54381475929
 20
35.082229950198
 10
101.54381475929
 20
68.415563283532
 10
114.87714809263
 20
68.415563283532
 10
114.87714809263
 20
35.082229950198
  0
LWPOLYLINE
  5
BE
330
18
100
AcDbEntity
  8
LEVEL001
  6
Continuous
 62
     3
370
    20
100
AcDbPolyline
 90
        4
 70
     0
 43
0.0
 10
108.71048142596
 20
35.082229950198
 10
108.71048142596
 20
30.082229950198
 10
107.71048142596
 20
30.082229950198
 10
107.71048142596
 20
35.082229950198
  0
LINE
  5
BF
330
18
100
AcDbEntity
  8
LEVEL001
  6
Continuous
 62
     3
370
    20
100
AcDbLine
 10
105.71048142596
 20
68.415563283532
 30
0.0
 11
105.71048142596
 21
35.082229950198
 31
0.0
  0
LINE
  5
C0
330
18
100
AcDbEntity
  8
LEVEL001
  6
Continuous
 62
     3
370
    20
100
AcDbLine
 10
110.71048142596
 20
35.082229950198
 30
0.0
 11
110.71048142596
 21
68.415563283532
 31
0.0
  0
LINE
  5
C1
330
18
100
AcDbEntity
  8
LEVEL001
  6
Continuous
 62
     3
370
    20
100
AcDbLine
 10
98.21048142596
 20
34.415563283532
 30
0.0
 11
107.71048142596
 21
34.415563283532
 31
0.0
  0
LINE
  5
C2
330
18
100
AcDbEntity
  8
LEVEL001
  6
Continuous
 62
     3
370
    20
100
AcDbLine
 10
108.71048142596
 20
34.415563283532
 30
0.0
 11
118.21048142596
 21
34.415563283532
 31
0.0
  0
LWPOLYLINE
  5
C3
330
18
100
AcDbEntity
  8
LEVEL001
  6
Continuous
 62
     3
370
    20
100
AcDbPolyline
 90
        6
 70
     0
 43
0.0
 10
108.71048142596
 20
31.748896616865
 10
118.21048142596
 20
31.748896616865
 10
118.21048142596
 20
35.082229950198
 10
98.21048142596
 20
35.082229950198
 10
98.21048142596
 20
31.748896616865
 10
107.71048142596
 20
31.748896616865
  0
LINE
  5
C4
330
18
100
AcDbEntity
  8
LEVEL001
  6
Continuous
 62
     3
370
    20
100
AcDbLine
 10
102.58484996783
 20
34.415563283532
 30
0.0
 11
101.21048142596
 21
31.748896616865
 31
0.0
  0
LINE
  5
C5
330
18
100
AcDbEntity
  8
LEVEL001
  6
Continuous
 62
     3
370
    20
100
AcDbLine
 10
101.58484996783
 20
34.415563283532
 30
0.0
 11
102.12672712054
 21
33.526674394643
 31
0.0
  0
LINE
  5
C6
330
18
100
AcDbEntity
  8
LEVEL001
  6
Continuous
 62
     3
370
    20
100
AcDbLine
 10
101.66860427325
 20
32.637785505754
 30
0.0
 11
102.21048142596
 21
31.748896616865
 31
0.0
  0
LINE
  5
C7
330
18
100
AcDbEntity
  8
LEVEL001
  6
Continuous
 62
     3
370
    20
100
AcDbLine
 10
105.58484996783
 20
34.415563283532
 30
0.0
 11
104.21048142596
 21
31.748896616865
 31
0.0
  0
LINE
  5
C8
330
18
100
AcDbEntity
  8
LEVEL001
  6
Continuous
 62
     3
370
    20
100
AcDbLine
 10
104.58484996783
 20
34.415563283532
 30
0.0
 11
105.12672712054
 21
33.526674394643
 31
0.0
  0
LINE
  5
C9
330
18
100
AcDbEntity
  8
LEVEL001
  6
Continuous
 62
     3
370
    20
100
AcDbLine
 10
104.66780245024
 20
32.637785505754
 30
0.0
 11
105.20967960295
 21
31.748896616865
 31
0.0
  0
LINE
  5
CA
330
18
100
AcDbEntity
  8
LEVEL001
  6
Continuous
 62
     3
370
    20
100
AcDbLine
 10
98.66860427325
 20
32.637785505754
 30
0.0
 11
99.21048142596
 21
31.748896616865
 31
0.0
  0
LINE
  5
CB
330
18
100
AcDbEntity
  8
LEVEL001
  6
Continuous
 62
     3
370
    20
100
AcDbLine
 10
99.584849967832
 20
34.415563283532
 30
0.0
 11
98.21048142596
 21
31.748896616865
 31
0.0
  0
LINE
  5
CC
330
18
100
AcDbEntity
  8
LEVEL001
  6
Continuous
 62
     3
370
    20
100
AcDbLine
 10
98.584849967832
 20
34.415563283532
 30
0.0
 11
99.126727120541
 21
33.526674394643
 31
0.0
  0
LINE
  5
CD
330
18
100
AcDbEntity
  8
LEVEL001
  6
Continuous
 62
     3
370
    20
100
AcDbLine
 10
111.58404814482
 20
34.415563283532
 30
0.0
 11
110.20967960295
 21
31.748896616865
 31
0.0
  0
LINE
  5
CE
330
18
100
AcDbEntity
  8
LEVEL001
  6
Continuous
 62
     3
370
    20
100
AcDbLine
 10
114.59388620154
 20
34.415563283532
 30
0.0
 11
113.21951765966
 21
31.748896616865
 31
0.0
  0
LINE
  5
CF
330
18
100
AcDbEntity
  8
LEVEL001
  6
Continuous
 62
     3
370
    20
100
AcDbLine
 10
117.59904405311
 20
34.415563283532
 30
0.0
 11
116.22467551124
 21
31.748896616865
 31
0.0
  0
LINE
  5
D0
330
18
100
AcDbEntity
  8
LEVEL001
  6
Continuous
 62
     3
370
    20
100
AcDbLine
 10
116.59904405311
 20
34.415563283532
 30
0.0
 11
117.14092120582
 21
33.526674394643
 31
0.0
  0
LINE
  5
D1
330
18
100
AcDbEntity
  8
LEVEL001
  6
Continuous
 62
     3
370
    20
100
AcDbLine
 10
113.59388620154
 20
34.415563283532
 30
0.0
 11
114.13576335424
 21
33.526674394643
 31
0.0
  0
LINE
  5
D2
330
18
100
AcDbEntity
  8
LEVEL001
  6
Continuous
 62
     3
370
    20
100
AcDbLine
 10
110.58404814482
 20
34.415563283532
 30
0.0
 11
111.12592529753
 21
33.526674394643
 31
0.0
  0
LINE
  5
D3
330
18
100
AcDbEntity
  8
LEVEL001
  6
Continuous
 62
     3
370
    20
100
AcDbLine
 10
116.74067827768
 20
32.637785505754
 30
0.0
 11
117.28255543039
 21
31.748896616865
 31
0.0
  0
LINE
  5
D4
330
18
100
AcDbEntity
  8
LEVEL001
  6
Continuous
 62
     3
370
    20
100
AcDbLine
 10
113.68279835853
 20
32.637785505754
 30
0.0
 11
114.22467551124
 21
31.748896616865
 31
0.0
  0
LINE
  5
D5
330
18
100
AcDbEntity
  8
LEVEL001
  6
Continuous
 62
     3
370
    20
100
AcDbLine
 10
110.67764050695
 20
32.637785505754
 30
0.0
 11
111.21951765966
 21
31.748896616865
 31
0.0
  0
LINE
  5
D6
330
18
100
AcDbEntity
  8
LEVEL001
  6
Continuous
 62
     3
370
    20
100
AcDbLine
 10
107.71048142596
 20
32.720594882165
 30
0.0
 11
107.20967960295
 21
31.748896616865
 31
0.0
  0
LINE
  5
D7
330
18
100
AcDbEntity
  8
LEVEL001
  6
Continuous
 62
     3
370
    20
100
AcDbLine
 10
107.58404814482
 20
34.415563283532
 30
0.0
 11
107.71048142596
 21
34.208163620665
 31
0.0
  0
LWPOLYLINE
  5
D8
330
18
100
AcDbEntity
  8
LEVEL001
  6
Continuous
 62
     3
370
    20
100
AcDbPolyline
 90
        3
 70
     0
 43
0.0
 10
108.21048142596
 20
35.082229950198
 10
109.71048142596
 20
35.082229950198
 10
109.71048142596
 20
68.415563283532
  0
LWPOLYLINE
  5
D9
330
18
100
AcDbEntity
  8
LEVEL001
  6
Continuous
 62
     3
370
    20
100
AcDbPolyline
 90
        5
 70
     0
 43
0.0
 10
109.71048142596
 20
70.182229950198
 10
109.71048142596
 20
227.5822299502
 10
109.46048142596
 20
260.0822299502
 10
109.46048142596
 20
268.41556328353
 10
108.21048142596
 20
268.41556328353
  0
LWPOLYLINE
  5
DA
330
18
100
AcDbEntity
  8
LEVEL001
  6
Continuous
 62
     3
370
    20
100
AcDbPolyline
 90
        3
 70
     0
 43
0.0
 10
108.21048142596
 20
35.082229950198
 10
106.71048142596
 20
35.082229950198
 10
106.71048142596
 20
68.415563283532
  0
LWPOLYLINE
  5
DB
330
18
100
AcDbEntity
  8
LEVEL001
  6
Continuous
 62
     3
370
    20
100
AcDbPolyline
 90
        5
 70
     0
 43
0.0
 10
106.71048142596
 20
70.182229950198
 10
106.71048142596
 20
227.5822299502
 10
106.96048142596
 20
260.0822299502
 10
106.96048142596
 20
268.41556328353
 10
108.21048142596
 20
268.41556328353
  0
LINE
  5
DC
330
18
100
AcDbEntity
  8
LEVEL001
  6
Continuous
 62
     3
370
    20
100
AcDbLine
 10
105.71048142596
 20
44.223170580704
 30
0.0
 11
101.54381475929
 21
41.817544459081
 31
0.0
  0
LINE
  5
DD
330
18
100
AcDbEntity
  8
LEVEL001
  6
Continuous
 62
     3
370
    20
100
AcDbLine
 10
114.87714809263
 20
49.515548048276
 30
0.0
 11
110.71048142596
 21
47.109921926652
 31
0.0
  0
LINE
  5
DE
330
18
100
AcDbEntity
  8
LEVEL001
  6
Continuous
 62
     3
370
    20
100
AcDbLine
 10
105.71048142596
 20
43.64582031155
 30
0.0
 11
101.54381475929
 21
41.240194189927
 31
0.0
  0
LINE
  5
DF
330
18
100
AcDbEntity
  8
LEVEL001
  6
Continuous
 62
     3
370
    20
100
AcDbLine
 10
105.71048142596
 20
43.068470042361
 30
0.0
 11
101.54381475929
 21
40.662843920738
 31
0.0
  0
LINE
  5
E0
330
18
100
AcDbEntity
  8
LEVEL001
  6
DASHDOT
 62
     1
370
    15
100
AcDbLine
 10
108.21048142596
 20
274.40114685758
 30
0.0
 11
108.21048142596
 21
26.590965540334
 31
0.0
  0
TEXT
  5
E1
330
18
100
AcDbEntity
  8
LEVEL001
 62
     3
370
    20
100
AcDbText
 10
387.0
 20
116.0
 30
0.0
 40
3.0
  1
ＡＤＣ５/Ａ１１００－Ｏ
 41
0.63888888888889
 72
     5
 11
410.0
 21
116.0
 31
0.0
100
AcDbText
  0
TEXT
  5
E2
330
18
100
AcDbEntity
  8
LEVEL001
 62
     3
370
    20
100
AcDbText
 10
23.794930967657
 20
23.049208282705
 30
0.0
 40
5.0
  1
ポール姿図
 41
1.08
 72
     5
 11
50.794930967657
 21
23.049208282705
 31
0.0
100
AcDbText
  0
LINE
  5
E3
330
18
100
AcDbEntity
  8
LEVEL001
  6
Continuous
 62
     3
370
    20
100
AcDbLine
 10
20.62826430099
 20
22.049208282705
 30
0.0
 11
53.961597634324
 21
22.049208282705
 31
0.0
  0
TEXT
  5
E4
330
18
100
AcDbEntity
  8
LEVEL001
 62
     3
370
    20
100
AcDbText
 10
28.595063750195
 20
16.096685414486
 30
0.0
 40
5.0
  1
Ｓ＝１：３０
 41
0.58333333333333
 72
     5
 11
46.095063750195
 21
16.096685414486
 31
0.0
100
AcDbText
  0
LINE
  5
E5
330
18
100
AcDbEntity
  8
LEVEL001
  6
Continuous
 62
     1
370
    15
100
AcDbLine
 10
277.03701451906
 20
96.495227528045
 30
0.0
 11
263.97982178059
 21
96.495227528045
 31
0.0
  0
LINE
  5
E6
330
18
100
AcDbEntity
  8
LEVEL001
  6
Continuous
 62
     1
370
    15
100
AcDbLine
 10
284.49701451906
 20
107.09522752805
 30
0.0
 11
263.97982178059
 21
107.09522752805
 31
0.0
  0
LINE
  5
E7
330
18
100
AcDbEntity
  8
LEVEL001
  6
Continuous
 62
     1
370
    15
100
AcDbLine
 10
265.97982178059
 20
96.495227528045
 30
0.0
 11
265.97982178059
 21
101.79522752805
 31
0.0
  0
LINE
  5
E8
330
18
100
AcDbEntity
  8
LEVEL001
  6
Continuous
 62
     1
370
    15
100
AcDbLine
 10
265.97982178059
 20
107.09522752805
 30
0.0
 11
265.97982178059
 21
101.79522752805
 31
0.0
  0
LINE
  5
E9
330
18
100
AcDbEntity
  8
LEVEL001
  6
Continuous
 62
     1
370
    15
100
AcDbLine
 10
265.97982178059
 20
96.495227528045
 30
0.0
 11
266.78366935788
 21
99.495227528045
 31
0.0
  0
LINE
  5
EA
330
18
100
AcDbEntity
  8
LEVEL001
  6
Continuous
 62
     1
370
    15
100
AcDbLine
 10
265.97982178059
 20
96.495227528045
 30
0.0
 11
265.17597420329
 21
99.495227528045
 31
0.0
  0
LINE
  5
EB
330
18
100
AcDbEntity
  8
LEVEL001
  6
Continuous
 62
     1
370
    15
100
AcDbLine
 10
265.97982178059
 20
107.09522752805
 30
0.0
 11
265.17597420329
 21
104.09522752805
 31
0.0
  0
LINE
  5
EC
330
18
100
AcDbEntity
  8
LEVEL001
  6
Continuous
 62
     1
370
    15
100
AcDbLine
 10
265.97982178059
 20
107.09522752805
 30
0.0
 11
266.78366935788
 21
104.09522752805
 31
0.0
  0
MTEXT
  5
ED
330
18
100
AcDbEntity
  8
LEVEL001
 62
     3
370
    20
100
AcDbMText
 10
264.2655360663
 20
101.79522752805
 30
0.0
 40
4.0
 41
0.0
 71
     8
 72
     1
  1
\A1;(53)
 11
0.0
 21
1.0
 31
0.0
 73
     1
 44
1.0
  0
LINE
  5
EE
330
18
100
AcDbEntity
  8
LEVEL001
  6
Continuous
 62
     1
370
    15
100
AcDbLine
 10
323.89701451906
 20
94.495227528045
 30
0.0
 11
323.89701451906
 21
71.875496099362
 31
0.0
  0
LINE
  5
EF
330
18
100
AcDbEntity
  8
LEVEL001
  6
Continuous
 62
     1
370
    15
100
AcDbLine
 10
279.09701451906
 20
94.495227528045
 30
0.0
 11
279.09701451906
 21
71.875496099362
 31
0.0
  0
LINE
  5
F0
330
18
100
AcDbEntity
  8
LEVEL001
  6
Continuous
 62
     1
370
    15
100
AcDbLine
 10
323.89701451906
 20
73.875496099362
 30
0.0
 11
301.49701451906
 21
73.875496099362
 31
0.0
  0
LINE
  5
F1
330
18
100
AcDbEntity
  8
LEVEL001
  6
Continuous
 62
     1
370
    15
100
AcDbLine
 10
279.09701451906
 20
73.875496099362
 30
0.0
 11
301.49701451906
 21
73.875496099362
 31
0.0
  0
LINE
  5
F2
330
18
100
AcDbEntity
  8
LEVEL001
  6
Continuous
 62
     1
370
    15
100
AcDbLine
 10
323.89701451906
 20
73.875496099362
 30
0.0
 11
320.89701451906
 21
74.679343676655
 31
0.0
  0
LINE
  5
F3
330
18
100
AcDbEntity
  8
LEVEL001
  6
Continuous
 62
     1
370
    15
100
AcDbLine
 10
323.89701451906
 20
73.875496099362
 30
0.0
 11
320.89701451906
 21
73.071648522068
 31
0.0
  0
LINE
  5
F4
330
18
100
AcDbEntity
  8
LEVEL001
  6
Continuous
 62
     1
370
    15
100
AcDbLine
 10
279.09701451906
 20
73.875496099362
 30
0.0
 11
282.09701451906
 21
73.071648522068
 31
0.0
  0
LINE
  5
F5
330
18
100
AcDbEntity
  8
LEVEL001
  6
Continuous
 62
     1
370
    15
100
AcDbLine
 10
279.09701451906
 20
73.875496099362
 30
0.0
 11
282.09701451906
 21
74.679343676655
 31
0.0
  0
MTEXT
  5
F6
330
18
100
AcDbEntity
  8
LEVEL001
 62
     3
370
    20
100
AcDbMText
 10
301.49701451906
 20
75.589781813647
 30
0.0
 40
4.0
 41
0.0
 71
     8
 72
     1
  1
\A1;(%%c224)
 73
     1
 44
1.0
  0
LINE
  5
F7
330
18
100
AcDbEntity
  8
LEVEL001
  6
Continuous
 62
     1
370
    15
100
AcDbLine
 10
310.49701451906
 20
125.09522752805
 30
0.0
 11
310.49701451906
 21
135.82215269282
 31
0.0
  0
LINE
  5
F8
330
18
100
AcDbEntity
  8
LEVEL001
  6
Continuous
 62
     1
370
    15
100
AcDbLine
 10
292.49701451906
 20
125.09522752805
 30
0.0
 11
292.49701451906
 21
135.82215269282
 31
0.0
  0
LINE
  5
F9
330
18
100
AcDbEntity
  8
LEVEL001
  6
Continuous
 62
     1
370
    15
100
AcDbLine
 10
310.49701451906
 20
133.82215269282
 30
0.0
 11
301.49701451906
 21
133.82215269282
 31
0.0
  0
LINE
  5
FA
330
18
100
AcDbEntity
  8
LEVEL001
  6
Continuous
 62
     1
370
    15
100
AcDbLine
 10
292.49701451906
 20
133.82215269282
 30
0.0
 11
301.49701451906
 21
133.82215269282
 31
0.0
  0
LINE
  5
FB
330
18
100
AcDbEntity
  8
LEVEL001
  6
Continuous
 62
     1
370
    15
100
AcDbLine
 10
310.49701451906
 20
133.82215269282
 30
0.0
 11
307.49701451906
 21
134.62600027011
 31
0.0
  0
LINE
  5
FC
330
18
100
AcDbEntity
  8
LEVEL001
  6
Continuous
 62
     1
370
    15
100
AcDbLine
 10
310.49701451906
 20
133.82215269282
 30
0.0
 11
307.49701451906
 21
133.01830511553
 31
0.0
  0
LINE
  5
FD
330
18
100
AcDbEntity
  8
LEVEL001
  6
Continuous
 62
     1
370
    15
100
AcDbLine
 10
292.49701451906
 20
133.82215269282
 30
0.0
 11
295.49701451906
 21
133.01830511553
 31
0.0
  0
LINE
  5
FE
330
18
100
AcDbEntity
  8
LEVEL001
  6
Continuous
 62
     1
370
    15
100
AcDbLine
 10
292.49701451906
 20
133.82215269282
 30
0.0
 11
295.49701451906
 21
134.62600027011
 31
0.0
  0
MTEXT
  5
FF
330
18
100
AcDbEntity
  8
LEVEL001
 62
     3
370
    20
100
AcDbMText
 10
301.49701451906
 20
135.53643840711
 30
0.0
 40
4.0
 41
0.0
 71
     8
 72
     1
  1
\A1;%%c90
 73
     1
 44
1.0
  0
POLYLINE
  5
100
330
18
100
AcDbEntity
  8
LEVEL001
  6
Continuous
 62
     1
370
    15
100
AcDb2dPolyline
 66
     1
 10
0.0
 20
0.0
 30
0.0
  0
VERTEX
  5
101
330
100
100
AcDbEntity
  8
LEVEL001
  6
Continuous
 62
     1
100
AcDbVertex
100
AcDb2dVertex
 10
113.14459536766
 20
61.257549479044
 30
0.0
  0
VERTEX
  5
102
330
100
100
AcDbEntity
  8
LEVEL001
  6
Continuous
 62
     1
100
AcDbVertex
100
AcDb2dVertex
 10
121.27516753321
 20
56.858828462491
 30
0.0
  0
VERTEX
  5
103
330
100
100
AcDbEntity
  8
LEVEL001
  6
Continuous
 62
     1
100
AcDbVertex
100
AcDb2dVertex
 10
149.27516753321
 20
56.858828462491
 30
0.0
  0
SEQEND
  5
104
330
100
100
AcDbEntity
  8
LEVEL001
  6
Continuous
 62
     1
  0
LINE
  5
105
330
18
100
AcDbEntity
  8
LEVEL001
  6
Continuous
 62
     1
370
    15
100
AcDbLine
 10
113.14459536766
 20
61.257549479044
 30
0.0
 11
115.40069647291
 21
59.123028752889
 31
0.0
  0
LINE
  5
106
330
18
100
AcDbEntity
  8
LEVEL001
  6
Continuous
 62
     1
370
    15
100
AcDbLine
 10
113.14459536766
 20
61.257549479044
 30
0.0
 11
116.16569660139
 21
60.537050857917
 31
0.0
  0
MTEXT
  5
107
102
{ACAD_REACTORS
330
106
102
}
330
18
100
AcDbEntity
  8
LEVEL001
 62
     3
370
    20
100
AcDbMText
 10
121.27516753321
 20
58.573114176776
 30
0.0
 40
4.0
 41
0.0
 71
     7
 72
     1
  1
\A1;基礎コンクリート
 73
     1
 44
1.0
  0
POLYLINE
  5
108
330
18
100
AcDbEntity
  8
LEVEL001
  6
Continuous
 62
     1
370
    15
100
AcDb2dPolyline
 66
     1
 10
0.0
 20
0.0
 30
0.0
  0
VERTEX
  5
109
330
108
100
AcDbEntity
  8
LEVEL001
  6
Continuous
 62
     1
100
AcDbVertex
100
AcDb2dVertex
 10
108.71048142596
 20
30.082229950198
 30
0.0
  0
VERTEX
  5
10A
330
108
100
AcDbEntity
  8
LEVEL001
  6
Continuous
 62
     1
100
AcDbVertex
100
AcDb2dVertex
 10
121.64122868896
 20
21.256122195705
 30
0.0
  0
VERTEX
  5
10B
330
108
100
AcDbEntity
  8
LEVEL001
  6
Continuous
 62
     1
100
AcDbVertex
100
AcDb2dVertex
 10
144.5692833318
 20
21.256122195705
 30
0.0
  0
SEQEND
  5
10C
330
108
100
AcDbEntity
  8
LEVEL001
  6
Continuous
 62
     1
  0
LINE
  5
10D
330
18
100
AcDbEntity
  8
LEVEL001
  6
Continuous
 62
     1
370
    15
100
AcDbLine
 10
108.71048142596
 20
30.082229950198
 30
0.0
 11
110.73512246411
 21
27.727023039083
 31
0.0
  0
LINE
  5
10E
330
18
100
AcDbEntity
  8
LEVEL001
  6
Continuous
 62
     1
370
    15
100
AcDbLine
 10
108.71048142596
 20
30.082229950198
 30
0.0
 11
111.6414754541
 21
29.054881453077
 31
0.0
  0
MTEXT
  5
10F
102
{ACAD_REACTORS
330
10E
102
}
330
18
100
AcDbEntity
  8
LEVEL001
 62
     3
370
    20
100
AcDbMText
 10
123.5692833318
 20
21.757375070465
 30
0.0
 40
4.0
 41
0.0
 71
     7
 72
     1
  1
\A1;水抜きパイプ
 73
     1
 44
1.0
  0
POLYLINE
  5
110
330
18
100
AcDbEntity
  8
LEVEL001
  6
Continuous
 62
     1
370
    15
100
AcDb2dPolyline
 66
     1
 10
0.0
 20
0.0
 30
0.0
  0
VERTEX
  5
111
330
110
100
AcDbEntity
  8
LEVEL001
  6
Continuous
 62
     1
100
AcDbVertex
100
AcDb2dVertex
 10
117.26778322303
 20
32.896139395831
 30
0.0
  0
VERTEX
  5
112
330
110
100
AcDbEntity
  8
LEVEL001
  6
Continuous
 62
     1
100
AcDbVertex
100
AcDb2dVertex
 10
124.72850462184
 20
28.700580773915
 30
0.0
  0
VERTEX
  5
113
330
110
100
AcDbEntity
  8
LEVEL001
  6
Continuous
 62
     1
100
AcDbVertex
100
AcDb2dVertex
 10
136.92767302591
 20
28.700580773915
 30
0.0
  0
SEQEND
  5
114
330
110
100
AcDbEntity
  8
LEVEL001
  6
Continuous
 62
     1
  0
LINE
  5
115
330
18
100
AcDbEntity
  8
LEVEL001
  6
Continuous
 62
     1
370
    15
100
AcDbLine
 10
117.26778322303
 20
32.896139395831
 30
0.0
 11
119.48865709798
 21
30.724989894047
 31
0.0
  0
LINE
  5
116
330
18
100
AcDbEntity
  8
LEVEL001
  6
Continuous
 62
     1
370
    15
100
AcDbLine
 10
117.26778322303
 20
32.896139395831
 30
0.0
 11
120.27669116823
 21
32.126305709345
 31
0.0
  0
MTEXT
  5
117
102
{ACAD_REACTORS
330
116
102
}
330
18
100
AcDbEntity
  8
LEVEL001
 62
     3
370
    20
100
AcDbMText
 10
126.42767302591
 20
30.019323200086
 30
0.0
 40
4.0
 41
0.0
 71
     7
 72
     1
  1
\A1;割栗石
 73
     1
 44
1.0
  0
POLYLINE
  5
118
330
18
100
AcDbEntity
  8
LEVEL001
  6
Continuous
 62
     1
370
    15
100
AcDb2dPolyline
 66
     1
 10
0.0
 20
0.0
 30
0.0
  0
VERTEX
  5
119
330
118
100
AcDbEntity
  8
LEVEL001
  6
Continuous
 62
     1
100
AcDbVertex
100
AcDb2dVertex
 10
109.71056333855
 20
54.290978493437
 30
0.0
  0
VERTEX
  5
11A
330
118
100
AcDbEntity
  8
LEVEL001
  6
Continuous
 62
     1
100
AcDbVertex
100
AcDb2dVertex
 10
121.68059350408
 20
47.615278151877
 30
0.0
  0
VERTEX
  5
11B
330
118
100
AcDbEntity
  8
LEVEL001
  6
Continuous
 62
     1
100
AcDbVertex
100
AcDb2dVertex
 10
146.18059350408
 20
47.615278151877
 30
0.0
  0
SEQEND
  5
11C
330
118
100
AcDbEntity
  8
LEVEL001
  6
Continuous
 62
     1
  0
LINE
  5
11D
330
18
100
AcDbEntity
  8
LEVEL001
  6
Continuous
 62
     1
370
    15
100
AcDbLine
 10
109.71056333855
 20
54.290978493437
 30
0.0
 11
111.93911158287
 21
52.127706977829
 31
0.0
  0
LINE
  5
11E
330
18
100
AcDbEntity
  8
LEVEL001
  6
Continuous
 62
     1
370
    15
100
AcDbLine
 10
109.71056333855
 20
54.290978493437
 30
0.0
 11
112.7221784895
 21
53.531804527799
 31
0.0
  0
MTEXT
  5
11F
102
{ACAD_REACTORS
330
11E
102
}
330
18
100
AcDbEntity
  8
LEVEL001
 62
     3
370
    20
100
AcDbMText
 10
121.68059350408
 20
49.329563866163
 30
0.0
 40
4.0
 41
0.0
 71
     7
 72
     1
  1
\A1;埋込部黒色塗装
 73
     1
 44
1.0
  0
LINE
  5
120
330
18
100
AcDbEntity
  8
LEVEL001
  6
Continuous
 62
     1
370
    15
100
AcDbLine
 10
103.21048142596
 20
106.74889661687
 30
0.0
 11
84.958621601752
 21
106.74889661687
 31
0.0
  0
LINE
  5
121
330
18
100
AcDbEntity
  8
LEVEL001
  6
Continuous
 62
     1
370
    15
100
AcDbLine
 10
99.543814759293
 20
68.415563283532
 30
0.0
 11
84.958621601752
 21
68.415563283532
 31
0.0
  0
LINE
  5
122
330
18
100
AcDbEntity
  8
LEVEL001
  6
Continuous
 62
     1
370
    15
100
AcDbLine
 10
86.958621601752
 20
106.74889661687
 30
0.0
 11
86.958621601752
 21
87.582229950199
 31
0.0
  0
LINE
  5
123
330
18
100
AcDbEntity
  8
LEVEL001
  6
Continuous
 62
     1
370
    15
100
AcDbLine
 10
86.958621601752
 20
68.415563283532
 30
0.0
 11
86.958621601752
 21
87.582229950199
 31
0.0
  0
LINE
  5
124
330
18
100
AcDbEntity
  8
LEVEL001
  6
Continuous
 62
     1
370
    15
100
AcDbLine
 10
86.958621601752
 20
106.74889661687
 30
0.0
 11
86.154774024459
 21
103.74889661687
 31
0.0
  0
LINE
  5
125
330
18
100
AcDbEntity
  8
LEVEL001
  6
Continuous
 62
     1
370
    15
100
AcDbLine
 10
86.958621601752
 20
106.74889661687
 30
0.0
 11
87.762469179046
 21
103.74889661687
 31
0.0
  0
LINE
  5
126
330
18
100
AcDbEntity
  8
LEVEL001
  6
Continuous
 62
     1
370
    15
100
AcDbLine
 10
86.958621601752
 20
68.415563283532
 30
0.0
 11
87.762469179046
 21
71.415563283532
 31
0.0
  0
LINE
  5
127
330
18
100
AcDbEntity
  8
LEVEL001
  6
Continuous
 62
     1
370
    15
100
AcDbLine
 10
86.958621601752
 20
68.415563283532
 30
0.0
 11
86.154774024459
 21
71.415563283532
 31
0.0
  0
MTEXT
  5
128
330
18
100
AcDbEntity
  8
LEVEL001
 62
     3
370
    20
100
AcDbMText
 10
85.244335887467
 20
87.582229950199
 30
0.0
 40
4.0
 41
0.0
 71
     8
 72
     1
  1
\A1;1150
 11
0.0
 21
1.0
 31
0.0
 73
     1
 44
1.0
  0
LINE
  5
129
330
18
100
AcDbEntity
  8
LEVEL001
  6
Continuous
 62
     1
370
    15
100
AcDbLine
 10
95.110489881904
 20
68.415563283532
 30
0.0
 11
62.330674479627
 21
68.415563283532
 31
0.0
  0
LINE
  5
12A
330
18
100
AcDbEntity
  8
LEVEL001
  6
Continuous
 62
     1
370
    15
100
AcDbLine
 10
104.71048142596
 20
35.082229950198
 30
0.0
 11
62.330674479627
 21
35.082229950198
 31
0.0
  0
LINE
  5
12B
330
18
100
AcDbEntity
  8
LEVEL001
  6
Continuous
 62
     1
370
    15
100
AcDbLine
 10
64.330674479627
 20
68.415563283532
 30
0.0
 11
64.330674479627
 21
51.748896616865
 31
0.0
  0
LINE
  5
12C
330
18
100
AcDbEntity
  8
LEVEL001
  6
Continuous
 62
     1
370
    15
100
AcDbLine
 10
64.330674479627
 20
35.082229950198
 30
0.0
 11
64.330674479627
 21
51.748896616865
 31
0.0
  0
LINE
  5
12D
330
18
100
AcDbEntity
  8
LEVEL001
  6
Continuous
 62
     1
370
    15
100
AcDbLine
 10
64.330674479627
 20
68.415563283532
 30
0.0
 11
63.526826902334
 21
65.415563283532
 31
0.0
  0
LINE
  5
12E
330
18
100
AcDbEntity
  8
LEVEL001
  6
Continuous
 62
     1
370
    15
100
AcDbLine
 10
64.330674479627
 20
68.415563283532
 30
0.0
 11
65.134522056921
 21
65.415563283532
 31
0.0
  0
LINE
  5
12F
330
18
100
AcDbEntity
  8
LEVEL001
  6
Continuous
 62
     1
370
    15
100
AcDbLine
 10
64.330674479627
 20
35.082229950198
 30
0.0
 11
65.134522056921
 21
38.082229950198
 31
0.0
  0
LINE
  5
130
330
18
100
AcDbEntity
  8
LEVEL001
  6
Continuous
 62
     1
370
    15
100
AcDbLine
 10
64.330674479627
 20
35.082229950198
 30
0.0
 11
63.526826902334
 21
38.082229950198
 31
0.0
  0
MTEXT
  5
131
330
18
100
AcDbEntity
  8
LEVEL001
 62
     3
370
    20
100
AcDbMText
 10
62.616388765342
 20
51.748896616865
 30
0.0
 40
4.0
 41
0.0
 71
     8
 72
     1
  1
\A1;1000
 11
0.0
 21
1.0
 31
0.0
 73
     1
 44
1.0
  0
LINE
  5
132
330
18
100
AcDbEntity
  8
LEVEL001
  6
Continuous
 62
     1
370
    15
100
AcDbLine
 10
95.110489881904
 20
68.415563283532
 30
0.0
 11
62.330674479627
 21
68.415563283532
 31
0.0
  0
LINE
  5
133
330
18
100
AcDbEntity
  8
LEVEL001
  6
Continuous
 62
     1
370
    15
100
AcDbLine
 10
104.96048142596
 20
268.41556328353
 30
0.0
 11
62.330674479627
 21
268.41556328353
 31
0.0
  0
LINE
  5
134
330
18
100
AcDbEntity
  8
LEVEL001
  6
Continuous
 62
     1
370
    15
100
AcDbLine
 10
64.330674479627
 20
68.415563283532
 30
0.0
 11
64.330674479627
 21
168.41556328353
 31
0.0
  0
LINE
  5
135
330
18
100
AcDbEntity
  8
LEVEL001
  6
Continuous
 62
     1
370
    15
100
AcDbLine
 10
64.330674479627
 20
268.41556328353
 30
0.0
 11
64.330674479627
 21
168.41556328353
 31
0.0
  0
LINE
  5
136
330
18
100
AcDbEntity
  8
LEVEL001
  6
Continuous
 62
     1
370
    15
100
AcDbLine
 10
64.330674479627
 20
68.415563283532
 30
0.0
 11
65.134522056921
 21
71.415563283532
 31
0.0
  0
LINE
  5
137
330
18
100
AcDbEntity
  8
LEVEL001
  6
Continuous
 62
     1
370
    15
100
AcDbLine
 10
64.330674479627
 20
68.415563283532
 30
0.0
 11
63.526826902334
 21
71.415563283532
 31
0.0
  0
LINE
  5
138
330
18
100
AcDbEntity
  8
LEVEL001
  6
Continuous
 62
     1
370
    15
100
AcDbLine
 10
64.330674479627
 20
268.41556328353
 30
0.0
 11
63.526826902334
 21
265.41556328353
 31
0.0
  0
LINE
  5
139
330
18
100
AcDbEntity
  8
LEVEL001
  6
Continuous
 62
     1
370
    15
100
AcDbLine
 10
64.330674479627
 20
268.41556328353
 30
0.0
 11
65.134522056921
 21
265.41556328353
 31
0.0
  0
MTEXT
  5
13A
330
18
100
AcDbEntity
  8
LEVEL001
 62
     3
370
    20
100
AcDbMText
 10
62.616388765342
 20
168.41556328353
 30
0.0
 40
4.0
 41
0.0
 71
     8
 72
     1
  1
\A1;6000
 11
0.0
 21
1.0
 31
0.0
 73
     1
 44
1.0
  0
LINE
  5
13B
330
18
100
AcDbEntity
  8
LEVEL001
  6
Continuous
 62
     1
370
    15
100
AcDbLine
 10
106.02271598133
 20
272.31954382176
 30
0.0
 11
97.864377514124
 21
276.49910911406
 31
0.0
  0
CIRCLE
  5
13C
330
18
100
AcDbEntity
  8
LEVEL001
  6
Continuous
 62
     1
370
    15
100
AcDbCircle
 10
94.304364148277
 20
278.32292512314
 30
0.0
 40
4.0
  0
LINE
  5
13D
330
18
100
AcDbEntity
  8
LEVEL001
  6
Continuous
 62
     1
370
    15
100
AcDbLine
 10
106.02271598133
 20
272.31954382176
 30
0.0
 11
103.71922347702
 21
274.40283285839
 31
0.0
  0
LINE
  5
13E
330
18
100
AcDbEntity
  8
LEVEL001
  6
Continuous
 62
     1
370
    15
100
AcDbLine
 10
106.02271598133
 20
272.31954382176
 30
0.0
 11
102.98618843686
 21
272.97197879876
 31
0.0
  0
MTEXT
  5
13F
330
18
100
AcDbEntity
  8
LEVEL001
 62
     3
370
    20
100
AcDbMText
 10
91.475937023531
 20
275.49449799839
 30
0.0
 40
5.6568542494924
 41
0.0
 71
     7
 72
     1
  1
\A1;２
 73
     1
 44
1.0
  0
LINE
  5
140
330
18
100
AcDbEntity
  8
LEVEL001
  6
Continuous
 62
     1
370
    15
100
AcDbLine
 10
98.21048142596
 20
29.748896616865
 30
0.0
 11
98.21048142596
 21
13.855308474667
 31
0.0
  0
LINE
  5
141
330
18
100
AcDbEntity
  8
LEVEL001
  6
Continuous
 62
     1
370
    15
100
AcDbLine
 10
118.21048142596
 20
29.748896616865
 30
0.0
 11
118.21048142596
 21
13.855308474667
 31
0.0
  0
LINE
  5
142
330
18
100
AcDbEntity
  8
LEVEL001
  6
Continuous
 62
     1
370
    15
100
AcDbLine
 10
83.201383836997
 20
15.855308474667
 30
0.0
 11
108.21048142596
 21
15.855308474667
 31
0.0
  0
LINE
  5
143
330
18
100
AcDbEntity
  8
LEVEL001
  6
Continuous
 62
     1
370
    15
100
AcDbLine
 10
118.21048142596
 20
15.855308474667
 30
0.0
 11
108.21048142596
 21
15.855308474667
 31
0.0
  0
LINE
  5
144
330
18
100
AcDbEntity
  8
LEVEL001
  6
Continuous
 62
     1
370
    15
100
AcDbLine
 10
98.21048142596
 20
15.855308474667
 30
0.0
 11
101.21048142596
 21
15.051460897373
 31
0.0
  0
LINE
  5
145
330
18
100
AcDbEntity
  8
LEVEL001
  6
Continuous
 62
     1
370
    15
100
AcDbLine
 10
98.21048142596
 20
15.855308474667
 30
0.0
 11
101.21048142596
 21
16.65915605196
 31
0.0
  0
LINE
  5
146
330
18
100
AcDbEntity
  8
LEVEL001
  6
Continuous
 62
     1
370
    15
100
AcDbLine
 10
118.21048142596
 20
15.855308474667
 30
0.0
 11
115.21048142596
 21
16.65915605196
 31
0.0
  0
LINE
  5
147
330
18
100
AcDbEntity
  8
LEVEL001
  6
Continuous
 62
     1
370
    15
100
AcDbLine
 10
118.21048142596
 20
15.855308474667
 30
0.0
 11
115.21048142596
 21
15.051460897373
 31
0.0
  0
MTEXT
  5
148
330
18
100
AcDbEntity
  8
LEVEL001
 62
     3
370
    20
100
AcDbMText
 10
97.201383836997
 20
16.228692185524
 30
0.0
 40
4.0
 41
0.0
 71
     9
 72
     1
  1
\A1;□600
 73
     1
 44
1.0
  0
LINE
  5
149
330
18
100
AcDbEntity
  8
LEVEL001
  6
Continuous
 62
     1
370
    15
100
AcDbLine
 10
96.21048142596
 20
35.082229950198
 30
0.0
 11
62.330674479627
 21
35.082229950198
 31
0.0
  0
LINE
  5
14A
330
18
100
AcDbEntity
  8
LEVEL001
  6
Continuous
 62
     1
370
    15
100
AcDbLine
 10
96.21048142596
 20
31.748896616865
 30
0.0
 11
62.330674479627
 21
31.748896616865
 31
0.0
  0
LINE
  5
14B
330
18
100
AcDbEntity
  8
LEVEL001
  6
Continuous
 62
     1
370
    15
100
AcDbLine
 10
64.330674479627
 20
38.832229950198
 30
0.0
 11
64.330674479627
 21
33.415563283532
 31
0.0
  0
LINE
  5
14C
330
18
100
AcDbEntity
  8
LEVEL001
  6
Continuous
 62
     1
370
    15
100
AcDbLine
 10
64.330674479627
 20
20.693032258689
 30
0.0
 11
64.330674479627
 21
33.415563283532
 31
0.0
  0
LINE
  5
14D
330
18
100
AcDbEntity
  8
LEVEL001
  6
Continuous
 62
     1
370
    15
100
AcDbLine
 10
64.330674479627
 20
35.082229950198
 30
0.0
 11
65.134522056921
 21
38.082229950198
 31
0.0
  0
LINE
  5
14E
330
18
100
AcDbEntity
  8
LEVEL001
  6
Continuous
 62
     1
370
    15
100
AcDbLine
 10
64.330674479627
 20
35.082229950198
 30
0.0
 11
63.526826902334
 21
38.082229950198
 31
0.0
  0
LINE
  5
14F
330
18
100
AcDbEntity
  8
LEVEL001
  6
Continuous
 62
     1
370
    15
100
AcDbLine
 10
64.330674479627
 20
31.748896616865
 30
0.0
 11
63.526826902334
 21
28.748896616865
 31
0.0
  0
LINE
  5
150
330
18
100
AcDbEntity
  8
LEVEL001
  6
Continuous
 62
     1
370
    15
100
AcDbLine
 10
64.330674479627
 20
31.748896616865
 30
0.0
 11
65.134522056921
 21
28.748896616865
 31
0.0
  0
MTEXT
  5
151
330
18
100
AcDbEntity
  8
LEVEL001
 62
     3
370
    20
100
AcDbMText
 10
62.764301881689
 20
31.193032258689
 30
0.0
 40
4.0
 41
0.0
 71
     9
 72
     1
  1
\A1;100
 11
0.0
 21
1.0
 31
0.0
 73
     1
 44
1.0
  0
LINE
  5
152
330
18
100
AcDbEntity
  8
LEVEL001
  6
Continuous
 62
     1
370
    15
100
AcDbLine
 10
101.54381475929
 20
30.082229950198
 30
0.0
 11
101.54381475929
 21
20.349718304515
 31
0.0
  0
LINE
  5
153
330
18
100
AcDbEntity
  8
LEVEL001
  6
Continuous
 62
     1
370
    15
100
AcDbLine
 10
114.87714809263
 20
30.082229950198
 30
0.0
 11
114.87714809263
 21
20.349718304515
 31
0.0
  0
LINE
  5
154
330
18
100
AcDbEntity
  8
LEVEL001
  6
Continuous
 62
     1
370
    15
100
AcDbLine
 10
83.570007587153
 20
22.349718304515
 30
0.0
 11
108.21048142596
 21
22.349718304515
 31
0.0
  0
LINE
  5
155
330
18
100
AcDbEntity
  8
LEVEL001
  6
Continuous
 62
     1
370
    15
100
AcDbLine
 10
114.87714809263
 20
22.349718304515
 30
0.0
 11
108.21048142596
 21
22.349718304515
 31
0.0
  0
LINE
  5
156
330
18
100
AcDbEntity
  8
LEVEL001
  6
Continuous
 62
     1
370
    15
100
AcDbLine
 10
101.54381475929
 20
22.349718304515
 30
0.0
 11
104.54381475929
 21
21.545870727221
 31
0.0
  0
LINE
  5
157
330
18
100
AcDbEntity
  8
LEVEL001
  6
Continuous
 62
     1
370
    15
100
AcDbLine
 10
101.54381475929
 20
22.349718304515
 30
0.0
 11
104.54381475929
 21
23.153565881808
 31
0.0
  0
LINE
  5
158
330
18
100
AcDbEntity
  8
LEVEL001
  6
Continuous
 62
     1
370
    15
100
AcDbLine
 10
114.87714809263
 20
22.349718304515
 30
0.0
 11
111.87714809263
 21
23.153565881808
 31
0.0
  0
LINE
  5
159
330
18
100
AcDbEntity
  8
LEVEL001
  6
Continuous
 62
     1
370
    15
100
AcDbLine
 10
114.87714809263
 20
22.349718304515
 30
0.0
 11
111.87714809263
 21
21.545870727221
 31
0.0
  0
MTEXT
  5
15A
330
18
100
AcDbEntity
  8
LEVEL001
 62
     3
370
    20
100
AcDbMText
 10
97.570007587153
 20
22.709960149198
 30
0.0
 40
4.0
 41
0.0
 71
     9
 72
     1
  1
\A1;□400
 73
     1
 44
1.0
  0
LINE
  5
15B
330
18
100
AcDbEntity
  8
LEVEL001
  6
Continuous
 62
     1
370
    15
100
AcDbLine
 10
106.96048142596
 20
273.41556328353
 30
0.0
 11
106.96048142596
 21
279.929967523
 31
0.0
  0
LINE
  5
15C
330
18
100
AcDbEntity
  8
LEVEL001
  6
Continuous
 62
     1
370
    15
100
AcDbLine
 10
109.46048142596
 20
273.41556328353
 30
0.0
 11
109.46048142596
 21
279.929967523
 31
0.0
  0
LINE
  5
15D
330
18
100
AcDbEntity
  8
LEVEL001
  6
Continuous
 62
     1
370
    15
100
AcDbLine
 10
103.21048142596
 20
277.929967523
 30
0.0
 11
108.21048142596
 21
277.929967523
 31
0.0
  0
LINE
  5
15E
330
18
100
AcDbEntity
  8
LEVEL001
  6
Continuous
 62
     1
370
    15
100
AcDbLine
 10
113.21048142596
 20
277.929967523
 30
0.0
 11
108.21048142596
 21
277.929967523
 31
0.0
  0
LINE
  5
15F
330
18
100
AcDbEntity
  8
LEVEL001
  6
Continuous
 62
     1
370
    15
100
AcDbLine
 10
106.96048142596
 20
277.929967523
 30
0.0
 11
103.96048142596
 21
278.73381510029
 31
0.0
  0
LINE
  5
160
330
18
100
AcDbEntity
  8
LEVEL001
  6
Continuous
 62
     1
370
    15
100
AcDbLine
 10
106.96048142596
 20
277.929967523
 30
0.0
 11
103.96048142596
 21
277.12611994571
 31
0.0
  0
LINE
  5
161
330
18
100
AcDbEntity
  8
LEVEL001
  6
Continuous
 62
     1
370
    15
100
AcDbLine
 10
109.46048142596
 20
277.929967523
 30
0.0
 11
112.46048142596
 21
277.12611994571
 31
0.0
  0
LINE
  5
162
330
18
100
AcDbEntity
  8
LEVEL001
  6
Continuous
 62
     1
370
    15
100
AcDbLine
 10
109.46048142596
 20
277.929967523
 30
0.0
 11
112.46048142596
 21
278.73381510029
 31
0.0
  0
MTEXT
  5
163
330
18
100
AcDbEntity
  8
LEVEL001
 62
     3
370
    20
100
AcDbMText
 10
108.21048142596
 20
279.64425323729
 30
0.0
 40
4.0
 41
0.0
 71
     8
 72
     1
  1
\A1;(%%c75)
 73
     1
 44
1.0
  0
LINE
  5
164
330
18
100
AcDbEntity
  8
LEVEL001
  6
Continuous
 62
     1
370
    15
100
AcDbLine
 10
104.71048142596
 20
68.415563283532
 30
0.0
 11
73.852632463779
 21
68.415563283532
 31
0.0
  0
LINE
  5
165
330
18
100
AcDbEntity
  8
LEVEL001
  6
Continuous
 62
     1
370
    15
100
AcDbLine
 10
75.852632463779
 20
68.415563283532
 30
0.0
 11
75.852632463779
 21
118.41556328354
 31
0.0
  0
LINE
  5
166
330
18
100
AcDbEntity
  8
LEVEL001
  6
Continuous
 62
     1
370
    15
100
AcDbLine
 10
75.852632463779
 20
168.41556328355
 30
0.0
 11
75.852632463779
 21
118.41556328354
 31
0.0
  0
LINE
  5
167
330
18
100
AcDbEntity
  8
LEVEL001
  6
Continuous
 62
     1
370
    15
100
AcDbLine
 10
75.852632463779
 20
68.415563283532
 30
0.0
 11
76.656480041072
 21
71.415563283532
 31
0.0
  0
LINE
  5
168
330
18
100
AcDbEntity
  8
LEVEL001
  6
Continuous
 62
     1
370
    15
100
AcDbLine
 10
75.852632463779
 20
68.415563283532
 30
0.0
 11
75.048784886485
 21
71.415563283532
 31
0.0
  0
LINE
  5
169
330
18
100
AcDbEntity
  8
LEVEL001
  6
Continuous
 62
     1
370
    15
100
AcDbLine
 10
75.852632463779
 20
168.41556328355
 30
0.0
 11
75.048784886485
 21
165.41556328355
 31
0.0
  0
LINE
  5
16A
330
18
100
AcDbEntity
  8
LEVEL001
  6
Continuous
 62
     1
370
    15
100
AcDbLine
 10
75.852632463779
 20
168.41556328355
 30
0.0
 11
76.656480041072
 21
165.41556328355
 31
0.0
  0
MTEXT
  5
16B
330
18
100
AcDbEntity
  8
LEVEL001
 62
     3
370
    20
100
AcDbMText
 10
74.138346749493
 20
118.41556328354
 30
0.0
 40
4.0
 41
0.0
 71
     8
 72
     1
  1
\A1;(3000)
 11
0.0
 21
1.0
 31
0.0
 73
     1
 44
1.0
  0
LINE
  5
16C
330
18
100
AcDbEntity
  8
LEVEL001
  6
Continuous
 62
     1
370
    15
100
AcDbLine
 10
104.71048142596
 20
168.41556328355
 30
0.0
 11
73.852632463779
 21
168.41556328355
 31
0.0
  0
LINE
  5
16D
330
18
100
AcDbEntity
  8
LEVEL001
  6
Continuous
 62
     1
370
    15
100
AcDbLine
 10
104.96048142596
 20
268.41556328353
 30
0.0
 11
73.852632463779
 21
268.41556328353
 31
0.0
  0
LINE
  5
16E
330
18
100
AcDbEntity
  8
LEVEL001
  6
Continuous
 62
     1
370
    15
100
AcDbLine
 10
75.852632463779
 20
168.41556328355
 30
0.0
 11
75.852632463779
 21
218.41556328354
 31
0.0
  0
LINE
  5
16F
330
18
100
AcDbEntity
  8
LEVEL001
  6
Continuous
 62
     1
370
    15
100
AcDbLine
 10
75.852632463779
 20
268.41556328353
 30
0.0
 11
75.852632463779
 21
218.41556328354
 31
0.0
  0
LINE
  5
170
330
18
100
AcDbEntity
  8
LEVEL001
  6
Continuous
 62
     1
370
    15
100
AcDbLine
 10
75.852632463779
 20
168.41556328355
 30
0.0
 11
76.656480041072
 21
171.41556328355
 31
0.0
  0
LINE
  5
171
330
18
100
AcDbEntity
  8
LEVEL001
  6
Continuous
 62
     1
370
    15
100
AcDbLine
 10
75.852632463779
 20
168.41556328355
 30
0.0
 11
75.048784886485
 21
171.41556328355
 31
0.0
  0
LINE
  5
172
330
18
100
AcDbEntity
  8
LEVEL001
  6
Continuous
 62
     1
370
    15
100
AcDbLine
 10
75.852632463779
 20
268.41556328353
 30
0.0
 11
75.048784886485
 21
265.41556328353
 31
0.0
  0
LINE
  5
173
330
18
100
AcDbEntity
  8
LEVEL001
  6
Continuous
 62
     1
370
    15
100
AcDbLine
 10
75.852632463779
 20
268.41556328353
 30
0.0
 11
76.656480041072
 21
265.41556328353
 31
0.0
  0
MTEXT
  5
174
330
18
100
AcDbEntity
  8
LEVEL001
 62
     3
370
    20
100
AcDbMText
 10
74.138346749493
 20
218.41556328354
 30
0.0
 40
4.0
 41
0.0
 71
     8
 72
     1
  1
\A1;(3000)
 11
0.0
 21
1.0
 31
0.0
 73
     1
 44
1.0
  0
LINE
  5
175
330
18
100
AcDbEntity
  8
LEVEL001
  6
Continuous
 62
     1
370
    15
100
AcDbLine
 10
108.12469498833
 20
169.82977684588
 30
0.0
 11
116.53202969717
 21
178.23711155472
 31
0.0
  0
LINE
  5
176
330
18
100
AcDbEntity
  8
LEVEL001
  6
Continuous
 62
     1
370
    15
100
AcDbLine
 10
111.12469498833
 20
169.82977684588
 30
0.0
 11
119.53202969717
 21
178.23711155472
 31
0.0
  0
LINE
  5
177
330
18
100
AcDbEntity
  8
LEVEL001
  6
Continuous
 62
     1
370
    15
100
AcDbLine
 10
111.3678161348
 20
176.82289799235
 30
0.0
 11
116.6178161348
 21
176.82289799235
 31
0.0
  0
LINE
  5
178
330
18
100
AcDbEntity
  8
LEVEL001
  6
Continuous
 62
     1
370
    15
100
AcDbLine
 10
131.99289980058
 20
176.82289799235
 30
0.0
 11
116.6178161348
 21
176.82289799235
 31
0.0
  0
LINE
  5
179
330
18
100
AcDbEntity
  8
LEVEL001
  6
Continuous
 62
     1
370
    15
100
AcDbLine
 10
115.1178161348
 20
176.82289799235
 30
0.0
 11
112.1178161348
 21
177.62674556964
 31
0.0
  0
LINE
  5
17A
330
18
100
AcDbEntity
  8
LEVEL001
  6
Continuous
 62
     1
370
    15
100
AcDbLine
 10
115.1178161348
 20
176.82289799235
 30
0.0
 11
112.1178161348
 21
176.01905041506
 31
0.0
  0
LINE
  5
17B
330
18
100
AcDbEntity
  8
LEVEL001
  6
Continuous
 62
     1
370
    15
100
AcDbLine
 10
118.1178161348
 20
176.82289799235
 30
0.0
 11
121.1178161348
 21
176.01905041506
 31
0.0
  0
LINE
  5
17C
330
18
100
AcDbEntity
  8
LEVEL001
  6
Continuous
 62
     1
370
    15
100
AcDbLine
 10
118.1178161348
 20
176.82289799235
 30
0.0
 11
121.1178161348
 21
177.62674556964
 31
0.0
  0
MTEXT
  5
17D
330
18
100
AcDbEntity
  8
LEVEL001
 62
     3
370
    20
100
AcDbMText
 10
121.49289980058
 20
178.68969762351
 30
0.0
 40
4.0
 41
0.0
 71
     7
 72
     1
  1
\A1;%%c90
 73
     1
 44
1.0
  0
TEXT
  5
17E
330
18
100
AcDbEntity
  8
LEVEL001
 62
     3
370
    20
100
AcDbText
 10
120.34898659837
 20
172.49735827086
 30
0.0
 40
4.0
  1
ｔ３．０
 41
0.875
 72
     5
 11
134.34898659837
 21
172.49735827086
 31
0.0
100
AcDbText
  0
TEXT
  5
17F
330
18
100
AcDbEntity
  8
LEVEL001
 62
     3
370
    20
100
AcDbText
 10
111.92619958564
 20
128.77889976005
 30
0.0
 40
4.0
  1
ｔ３．０
 41
0.875
 72
     5
 11
125.92619958564
 21
128.77889976005
 31
0.0
100
AcDbText
  0
TEXT
  5
180
330
18
100
AcDbEntity
  8
LEVEL001
 62
     3
370
    20
100
AcDbText
 10
352.0
 20
126.0
 30
0.0
 40
3.0
  1
クリート
 72
     5
 11
364.0
 21
126.0
 31
0.0
100
AcDbText
  0
TEXT
  5
181
330
18
100
AcDbEntity
  8
LEVEL001
 62
     3
370
    20
100
AcDbText
 10
352.0
 20
131.0
 30
0.0
 40
3.0
  1
グランドカバー
 72
     5
 11
373.0
 21
131.0
 31
0.0
100
AcDbText
  0
TEXT
  5
182
330
18
100
AcDbEntity
  8
LEVEL001
 62
     3
370
    20
100
AcDbText
 10
382.75
 20
131.0
 30
0.0
 40
3.0
  1
１
 41
0.5
 72
     5
 11
384.25
 21
131.0
 31
0.0
100
AcDbText
  0
TEXT
  5
183
330
18
100
AcDbEntity
  8
LEVEL001
 62
     3
370
    20
100
AcDbText
 10
382.75
 20
126.0
 30
0.0
 40
3.0
  1
１
 41
0.5
 72
     5
 11
384.25
 21
126.0
 31
0.0
100
AcDbText
  0
TEXT
  5
184
330
18
100
AcDbEntity
  8
LEVEL001
 62
     3
370
    20
100
AcDbText
 10
387.0
 20
131.0
 30
0.0
 40
3.0
  1
Ａ５０５２Ｐ
 41
0.66666666666667
 72
     5
 11
399.0
 21
131.0
 31
0.0
100
AcDbText
  0
TEXT
  5
185
330
18
100
AcDbEntity
  8
LEVEL001
 62
     3
370
    20
100
AcDbText
 10
387.0
 20
126.0
 30
0.0
 40
3.0
  1
ＡＤＣ５
 41
0.66666666666667
 72
     5
 11
395.0
 21
126.0
 31
0.0
100
AcDbText
  0
TEXT
  5
186
330
18
100
AcDbEntity
  8
LEVEL001
 62
     3
370
    20
100
AcDbText
 10
347.75
 20
131.0
 30
0.0
 40
3.0
  1
５
 41
0.5
 72
     5
 11
349.25
 21
131.0
 31
0.0
100
AcDbText
  0
TEXT
  5
187
330
18
100
AcDbEntity
  8
LEVEL001
 62
     3
370
    20
100
AcDbText
 10
347.75
 20
126.0
 30
0.0
 40
3.0
  1
４
 41
0.5
 72
     5
 11
349.25
 21
126.0
 31
0.0
100
AcDbText
  0
TEXT
  5
188
330
18
100
AcDbEntity
  8
LEVEL001
 62
     3
370
    20
100
AcDbText
 10
347.75
 20
121.0
 30
0.0
 40
3.0
  1
３
 41
0.5
 72
     5
 11
349.25
 21
121.0
 31
0.0
100
AcDbText
  0
TEXT
  5
189
330
18
100
AcDbEntity
  8
LEVEL001
 62
     3
370
    20
100
AcDbText
 10
382.75
 20
121.0
 30
0.0
 40
3.0
  1
１
 41
0.5
 72
     5
 11
384.25
 21
121.0
 31
0.0
100
AcDbText
  0
TEXT
  5
18A
330
18
100
AcDbEntity
  8
LEVEL001
 62
     3
370
    20
100
AcDbText
 10
352.0
 20
121.0
 30
0.0
 40
3.0
  1
滑車
 72
     5
 11
358.0
 21
121.0
 31
0.0
100
AcDbText
  0
TEXT
  5
18B
330
18
100
AcDbEntity
  8
LEVEL001
 62
     3
370
    20
100
AcDbText
 10
387.0
 20
121.0
 30
0.0
 40
3.0
  1
ジュラコン
 41
0.66666666666667
 72
     5
 11
397.0
 21
121.0
 31
0.0
100
AcDbText
  0
LINE
  5
18C
330
18
100
AcDbEntity
  8
LEVEL001
  6
Continuous
 62
     1
370
    15
100
AcDbLine
 10
105.07300907027
 20
70.006373442614
 30
0.0
 11
97.437113892589
 21
76.068639136098
 31
0.0
  0
CIRCLE
  5
18D
330
18
100
AcDbEntity
  8
LEVEL001
  6
Continuous
 62
     1
370
    15
100
AcDbCircle
 10
94.304364148277
 20
78.555781882206
 30
0.0
 40
4.0
  0
LINE
  5
18E
330
18
100
AcDbEntity
  8
LEVEL001
  6
Continuous
 62
     1
370
    15
100
AcDbLine
 10
105.07300907027
 20
70.006373442614
 30
0.0
 11
103.22326767975
 21
72.501293825252
 31
0.0
  0
LINE
  5
18F
330
18
100
AcDbEntity
  8
LEVEL001
  6
Continuous
 62
     1
370
    15
100
AcDbLine
 10
105.07300907027
 20
70.006373442614
 30
0.0
 11
102.22362584433
 21
71.242167179137
 31
0.0
  0
MTEXT
  5
190
330
18
100
AcDbEntity
  8
LEVEL001
 62
     3
370
    20
100
AcDbMText
 10
91.475937023531
 20
75.727354757459
 30
0.0
 40
5.6568542494924
 41
0.0
 71
     7
 72
     1
  1
\A1;５
 73
     1
 44
1.0
  0
LINE
  5
191
330
18
100
AcDbEntity
  8
LEVEL001
  6
Continuous
 62
     1
370
    15
100
AcDbLine
 10
106.71048142596
 20
142.33277797641
 30
0.0
 11
97.544380706423
 21
147.15704151301
 31
0.0
  0
CIRCLE
  5
192
330
18
100
AcDbEntity
  8
LEVEL001
  6
Continuous
 62
     1
370
    15
100
AcDbCircle
 10
94.004707816895
 20
149.02002724434
 30
0.0
 40
4.0
  0
LINE
  5
193
330
18
100
AcDbEntity
  8
LEVEL001
  6
Continuous
 62
     1
370
    15
100
AcDbLine
 10
106.71048142596
 20
142.33277797641
 30
0.0
 11
104.43011590048
 21
144.44135664408
 31
0.0
  0
LINE
  5
194
330
18
100
AcDbEntity
  8
LEVEL001
  6
Continuous
 62
     1
370
    15
100
AcDbLine
 10
106.71048142596
 20
142.33277797641
 30
0.0
 11
103.68133761715
 21
143.01867790575
 31
0.0
  0
MTEXT
  5
195
330
18
100
AcDbEntity
  8
LEVEL001
 62
     3
370
    20
100
AcDbMText
 10
90.209974624693
 20
147.75511618027
 30
0.0
 40
2.5298221281347
 41
0.0
 71
     7
 72
     1
  1
\A1;１－１
 73
     1
 44
1.0
  0
LINE
  5
196
330
18
100
AcDbEntity
  8
LEVEL001
  6
Continuous
 62
     1
370
    15
100
AcDbLine
 10
106.71048142596
 20
216.57738030773
 30
0.0
 11
97.544380706423
 21
221.40164384432
 31
0.0
  0
CIRCLE
  5
197
330
18
100
AcDbEntity
  8
LEVEL001
  6
Continuous
 62
     1
370
    15
100
AcDbCircle
 10
94.004707816895
 20
223.26462957565
 30
0.0
 40
4.0
  0
LINE
  5
198
330
18
100
AcDbEntity
  8
LEVEL001
  6
Continuous
 62
     1
370
    15
100
AcDbLine
 10
106.71048142596
 20
216.57738030773
 30
0.0
 11
104.43011590048
 21
218.68595897539
 31
0.0
  0
LINE
  5
199
330
18
100
AcDbEntity
  8
LEVEL001
  6
Continuous
 62
     1
370
    15
100
AcDbLine
 10
106.71048142596
 20
216.57738030773
 30
0.0
 11
103.68133761715
 21
217.26328023706
 31
0.0
  0
MTEXT
  5
19A
330
18
100
AcDbEntity
  8
LEVEL001
 62
     3
370
    20
100
AcDbMText
 10
90.209974624693
 20
221.99971851159
 30
0.0
 40
2.5298221281347
 41
0.0
 71
     7
 72
     1
  1
\A1;１－２
 73
     1
 44
1.0
  0
LINE
  5
19B
330
18
100
AcDbEntity
  8
LEVEL001
  6
Continuous
 62
     1
370
    15
100
AcDbLine
 10
102.96048142596
 20
134.37627636468
 30
0.0
 11
108.21048142596
 21
134.37627636468
 31
0.0
  0
LINE
  5
19C
330
18
100
AcDbEntity
  8
LEVEL001
  6
Continuous
 62
     1
370
    15
100
AcDbLine
 10
125.63884606212
 20
134.37627636468
 30
0.0
 11
108.21048142596
 21
134.37627636468
 31
0.0
  0
LINE
  5
19D
330
18
100
AcDbEntity
  8
LEVEL001
  6
Continuous
 62
     1
370
    15
100
AcDbLine
 10
106.71048142596
 20
134.37627636468
 30
0.0
 11
103.71048142596
 21
135.18012394197
 31
0.0
  0
LINE
  5
19E
330
18
100
AcDbEntity
  8
LEVEL001
  6
Continuous
 62
     1
370
    15
100
AcDbLine
 10
106.71048142596
 20
134.37627636468
 30
0.0
 11
103.71048142596
 21
133.57242878738
 31
0.0
  0
LINE
  5
19F
330
18
100
AcDbEntity
  8
LEVEL001
  6
Continuous
 62
     1
370
    15
100
AcDbLine
 10
109.71048142596
 20
134.37627636468
 30
0.0
 11
112.71048142596
 21
133.57242878738
 31
0.0
  0
LINE
  5
1A0
330
18
100
AcDbEntity
  8
LEVEL001
  6
Continuous
 62
     1
370
    15
100
AcDbLine
 10
109.71048142596
 20
134.37627636468
 30
0.0
 11
112.71048142596
 21
135.18012394197
 31
0.0
  0
MTEXT
  5
1A1
330
18
100
AcDbEntity
  8
LEVEL001
 62
     3
370
    20
100
AcDbMText
 10
120.38884606212
 20
134.90350893129
 30
0.0
 40
4.0
 41
0.0
 71
     8
 72
     1
  1
\A1;%%c90
 73
     1
 44
1.0
  0
POLYLINE
  5
1A2
330
18
100
AcDbEntity
  8
LEVEL001
  6
Continuous
 62
     1
370
    15
100
AcDb2dPolyline
 66
     1
 10
0.0
 20
0.0
 30
0.0
  0
VERTEX
  5
1A3
330
1A2
100
AcDbEntity
  8
LEVEL001
  6
Continuous
 62
     1
100
AcDbVertex
100
AcDb2dVertex
 10
109.71048142596
 20
168.41556328351
 30
0.0
  0
VERTEX
  5
1A4
330
1A2
100
AcDbEntity
  8
LEVEL001
  6
Continuous
 62
     1
100
AcDbVertex
100
AcDb2dVertex
 10
115.09503493389
 20
157.10740060849
 30
0.0
  0
VERTEX
  5
1A5
330
1A2
100
AcDbEntity
  8
LEVEL001
  6
Continuous
 62
     1
100
AcDbVertex
100
AcDb2dVertex
 10
133.17615307591
 20
157.10740060849
 30
0.0
  0
SEQEND
  5
1A6
330
1A2
100
AcDbEntity
  8
LEVEL001
  6
Continuous
 62
     1
  0
LINE
  5
1A7
330
18
100
AcDbEntity
  8
LEVEL001
  6
Continuous
 62
     1
370
    15
100
AcDbLine
 10
109.71048142596
 20
168.41556328351
 30
0.0
 11
110.27445698967
 21
165.36136903771
 31
0.0
  0
LINE
  5
1A8
330
18
100
AcDbEntity
  8
LEVEL001
  6
Continuous
 62
     1
370
    15
100
AcDbLine
 10
109.71048142596
 20
168.41556328351
 30
0.0
 11
111.72599571415
 21
166.05254126042
 31
0.0
  0
MTEXT
  5
1A9
102
{ACAD_REACTORS
330
1A8
102
}
330
18
100
AcDbEntity
  8
LEVEL001
 62
     3
370
    20
100
AcDbMText
 10
115.67615307591
 20
158.61802994072
 30
0.0
 40
4.0
 41
0.0
 71
     7
 72
     1
  1
\A1;現地結合部
 73
     1
 44
1.0
  0
TEXT
  5
1AA
330
18
100
AcDbEntity
  8
LEVEL001
 62
     3
370
    20
100
AcDbText
 10
356.6
 20
41.0
 30
0.0
 40
4.0
  1
６ＦＰ－Ｕｚｘ
 72
     5
 11
384.6
 21
41.0
 31
0.0
100
AcDbText
  0
TEXT
  5
1AB
330
18
100
AcDbEntity
  8
LEVEL001
 62
     3
370
    20
100
AcDbText
 10
356.6
 20
21.109792452098
 30
0.0
 40
4.0
  1
ＦＰ０６０Ｕｚｘ
 72
     5
 11
388.6
 21
21.109792452098
 31
0.0
100
AcDbText
  0
TEXT
  5
1AC
330
18
100
AcDbEntity
  8
LEVEL001
 62
     3
370
    20
100
AcDbText
 10
354.0
 20
12.0
 30
0.0
 40
6.0
  1
株式会社ＳＤＡＴ
 72
     5
 11
402.0
 21
12.0
 31
0.0
100
AcDbText
  0
LINE
  5
1AD
330
18
100
AcDbEntity
  8
LEVEL001
  6
Continuous
 62
     3
370
    20
100
AcDbLine
 10
178.71160515585
 20
34.975755375835
 30
0.0
 11
220.71160515585
 21
34.975755375835
 31
0.0
  0
LINE
  5
1AE
330
18
100
AcDbEntity
  8
LEVEL001
  6
DASHDOT
 62
     1
370
    15
100
AcDbLine
 10
199.33224124035
 20
116.98778895
 30
0.0
 11
199.33224124035
 21
48.457872577438
 31
0.0
  0
LINE
  5
1AF
330
18
100
AcDbEntity
  8
LEVEL001
  6
Continuous
 62
     3
370
    20
100
AcDbLine
 10
208.33224124035
 20
113.00945721815
 30
0.0
 11
208.33224124035
 21
53.009457218151
 31
0.0
  0
LINE
  5
1B0
330
18
100
AcDbEntity
  8
LEVEL001
  6
Continuous
 62
     3
370
    20
100
AcDbLine
 10
190.33224124035
 20
113.00945721815
 30
0.0
 11
190.33224124035
 21
53.009457218151
 31
0.0
  0
ARC
  5
1B1
330
18
100
AcDbEntity
  8
LEVEL001
  6
Continuous
 62
     3
370
    20
100
AcDbCircle
 10
203.83224124035
 20
105.21522858409
 30
0.0
 40
9.0000000000004
100
AcDbArc
 50
60.00000000000599
 51
120.0
  0
ARC
  5
1B2
330
18
100
AcDbEntity
  8
LEVEL001
  6
Continuous
 62
     3
370
    20
100
AcDbCircle
 10
194.83224124035
 20
105.21522858409
 30
0.0
 40
9.0000000000002
100
AcDbArc
 50
60.00000000000299
 51
120.0
  0
ARC
  5
1B3
330
18
100
AcDbEntity
  8
LEVEL001
  6
Continuous
 62
     3
370
    20
100
AcDbCircle
 10
194.83224124035
 20
120.80368585221
 30
0.0
 40
8.9999999999997
100
AcDbArc
 50
240.0
 51
300.0
  0
ARC
  5
1B4
330
18
100
AcDbEntity
  8
LEVEL001
  6
Continuous
 62
     3
370
    20
100
AcDbCircle
 10
194.83224124035
 20
105.21522858409
 30
0.0
 40
8.4000000000002
100
AcDbArc
 50
62.625448476079
 51
117.37455152392
  0
ARC
  5
1B5
330
18
100
AcDbEntity
  8
LEVEL001
  6
Continuous
 62
     3
370
    20
100
AcDbCircle
 10
194.83224124035
 20
60.80368585221
 30
0.0
 40
8.9999999999997
100
AcDbArc
 50
240.0
 51
300.0
  0
ARC
  5
1B6
330
18
100
AcDbEntity
  8
LEVEL001
  6
Continuous
 62
     3
370
    20
100
AcDbCircle
 10
203.83224124035
 20
45.21522858409
 30
0.0
 40
9.0000000000004
100
AcDbArc
 50
60.00000000000599
 51
120.0
  0
ARC
  5
1B7
330
18
100
AcDbEntity
  8
LEVEL001
  6
Continuous
 62
     3
370
    20
100
AcDbCircle
 10
203.83224124035
 20
60.803685852211
 30
0.0
 40
9.0000000000004
100
AcDbArc
 50
240.0
 51
299.99999999999
  0
ARC
  5
1B8
330
18
100
AcDbEntity
  8
LEVEL001
  6
Continuous
 62
     3
370
    20
100
AcDbCircle
 10
203.83224124035
 20
60.803685852211
 30
0.0
 40
8.4000000000004
100
AcDbArc
 50
242.62544847606
 51
297.37455152394
  0
LINE
  5
1B9
330
18
100
AcDbEntity
  8
LEVEL001
  6
DASHDOT
 62
     1
370
    15
100
AcDbLine
 10
179.25179764553
 20
83.009457218151
 30
0.0
 11
210.24746495864
 21
83.009457218151
 31
0.0
  0
LWPOLYLINE
  5
1BA
330
18
100
AcDbEntity
  8
LEVEL001
  6
Continuous
 62
     3
370
    20
100
AcDbPolyline
 90
        4
 70
     1
 43
0.0
 10
191.93224124035
 20
205.57115062537
 10
191.93224124035
 20
203.57115062537
 10
206.73224124035
 20
203.57115062537
 10
206.73224124035
 20
205.57115062537
  0
LINE
  5
1BB
330
18
100
AcDbEntity
  8
LEVEL001
  6
DOT
 62
     1
370
    15
100
AcDbLine
 10
192.58224124035
 20
197.77115062537
 30
0.0
 11
206.08224124035
 21
197.77115062537
 31
0.0
  0
LINE
  5
1BC
330
18
100
AcDbEntity
  8
LEVEL001
  6
DOT
 62
     1
370
    15
100
AcDbLine
 10
206.08224124035
 20
203.57115062537
 30
0.0
 11
206.08224124035
 21
197.77115062537
 31
0.0
  0
LINE
  5
1BD
330
18
100
AcDbEntity
  8
LEVEL001
  6
DOT
 62
     1
370
    15
100
AcDbLine
 10
192.58224124035
 20
203.57115062537
 30
0.0
 11
192.58224124035
 21
197.77115062537
 31
0.0
  0
LINE
  5
1BE
330
18
100
AcDbEntity
  8
LEVEL001
  6
DASHDOT
 62
     1
370
    15
100
AcDbLine
 10
187.93224124035
 20
221.39658483111
 30
0.0
 11
187.93224124035
 21
218.54571641962
 31
0.0
  0
LINE
  5
1BF
330
18
100
AcDbEntity
  8
LEVEL001
  6
DASHDOT
 62
     1
370
    15
100
AcDbLine
 10
189.39592578386
 20
219.97115062537
 30
0.0
 11
186.46855669683
 21
219.97115062537
 31
0.0
  0
LINE
  5
1C0
330
18
100
AcDbEntity
  8
LEVEL001
  6
DOT
 62
     1
370
    15
100
AcDbLine
 10
186.73224124035
 20
213.17115062537
 30
0.0
 11
193.73224124035
 21
213.17115062537
 31
0.0
  0
ARC
  5
1C1
330
18
100
AcDbEntity
  8
LEVEL001
  6
DOT
 62
     1
370
    15
100
AcDbCircle
 10
193.73224124035
 20
212.17115062537
 30
0.0
 40
1.0
100
AcDbArc
 50
0.0
 51
90.0
  0
LINE
  5
1C2
330
18
100
AcDbEntity
  8
LEVEL001
  6
DOT
 62
     1
370
    15
100
AcDbLine
 10
203.93224124035
 20
207.17115062537
 30
0.0
 11
194.73224124035
 21
207.17115062537
 31
0.0
  0
LINE
  5
1C3
330
18
100
AcDbEntity
  8
LEVEL001
  6
DOT
 62
     1
370
    15
100
AcDbLine
 10
194.73224124035
 20
212.17115062537
 30
0.0
 11
194.73224124035
 21
206.57115062537
 31
0.0
  0
LINE
  5
1C4
330
18
100
AcDbEntity
  8
LEVEL001
  6
DOT
 62
     1
370
    15
100
AcDbLine
 10
195.83224124035
 20
207.17115062537
 30
0.0
 11
195.83224124035
 21
206.57115062537
 31
0.0
  0
LINE
  5
1C5
330
18
100
AcDbEntity
  8
LEVEL001
  6
DOT
 62
     1
370
    15
100
AcDbLine
 10
196.83224124035
 20
207.17115062537
 30
0.0
 11
196.83224124035
 21
206.57115062537
 31
0.0
  0
LINE
  5
1C6
330
18
100
AcDbEntity
  8
LEVEL001
  6
DOT
 62
     1
370
    15
100
AcDbLine
 10
201.83224124035
 20
207.17115062537
 30
0.0
 11
201.83224124035
 21
206.57115062537
 31
0.0
  0
LINE
  5
1C7
330
18
100
AcDbEntity
  8
LEVEL001
  6
DOT
 62
     1
370
    15
100
AcDbLine
 10
202.83224124035
 20
207.17115062537
 30
0.0
 11
202.83224124035
 21
206.57115062537
 31
0.0
  0
LINE
  5
1C8
330
18
100
AcDbEntity
  8
LEVEL001
  6
DOT
 62
     1
370
    15
100
AcDbLine
 10
203.93224124035
 20
224.57115062537
 30
0.0
 11
203.93224124035
 21
206.57115062537
 31
0.0
  0
LINE
  5
1C9
330
18
100
AcDbEntity
  8
LEVEL001
  6
DOT
 62
     1
370
    15
100
AcDbLine
 10
194.73224124035
 20
206.57115062537
 30
0.0
 11
203.93224124035
 21
206.57115062537
 31
0.0
  0
LINE
  5
1CA
330
18
100
AcDbEntity
  8
LEVEL001
  6
DOT
 62
     1
370
    15
100
AcDbLine
 10
203.93224124035
 20
224.57115062537
 30
0.0
 11
186.13224124035
 21
224.57115062537
 31
0.0
  0
LINE
  5
1CB
330
18
100
AcDbEntity
  8
LEVEL001
  6
DOT
 62
     1
370
    15
100
AcDbLine
 10
203.93224124035
 20
223.97115062537
 30
0.0
 11
186.13224124035
 21
223.97115062537
 31
0.0
  0
LINE
  5
1CC
330
18
100
AcDbEntity
  8
LEVEL001
  6
DOT
 62
     1
370
    15
100
AcDbLine
 10
197.83224124035
 20
223.97115062537
 30
0.0
 11
197.83224124035
 21
224.57115062537
 31
0.0
  0
LINE
  5
1CD
330
18
100
AcDbEntity
  8
LEVEL001
  6
DOT
 62
     1
370
    15
100
AcDbLine
 10
200.83224124035
 20
224.57115062537
 30
0.0
 11
200.83224124035
 21
223.97115062537
 31
0.0
  0
ARC
  5
1CE
330
18
100
AcDbEntity
  8
LEVEL001
  6
DOT
 62
     1
370
    15
100
AcDbCircle
 10
186.73224124035
 20
213.77115062537
 30
0.0
 40
0.6
100
AcDbArc
 50
180.0
 51
269.99999999999
  0
LINE
  5
1CF
330
18
100
AcDbEntity
  8
LEVEL001
  6
DOT
 62
     1
370
    15
100
AcDbLine
 10
186.13224124035
 20
213.77115062537
 30
0.0
 11
186.13224124035
 21
216.77099486863
 31
0.0
  0
CIRCLE
  5
1D0
330
18
100
AcDbEntity
  8
LEVEL001
  6
DOT
 62
     1
370
    15
100
AcDbCircle
 10
187.93224124035
 20
219.97115062537
 30
0.0
 40
0.62
  0
CIRCLE
  5
1D1
330
18
100
AcDbEntity
  8
LEVEL001
  6
DOT
 62
     1
370
    15
100
AcDbCircle
 10
190.33224124035
 20
221.75115062537
 30
0.0
 40
0.62
  0
CIRCLE
  5
1D2
330
18
100
AcDbEntity
  8
LEVEL001
  6
DOT
 62
     1
370
    15
100
AcDbCircle
 10
198.13224124035
 20
221.75115062537
 30
0.0
 40
0.62
  0
LINE
  5
1D3
330
18
100
AcDbEntity
  8
LEVEL001
  6
DOT
 62
     1
370
    15
100
AcDbLine
 10
186.13224124035
 20
224.57115062537
 30
0.0
 11
186.13224124035
 21
216.77099486863
 31
0.0
  0
CIRCLE
  5
1D4
330
18
100
AcDbEntity
  8
LEVEL001
  6
DOT
 62
     1
370
    15
100
AcDbCircle
 10
187.93224124035
 20
219.97115062537
 30
0.0
 40
1.75
  0
LWPOLYLINE
  5
1D5
330
18
100
AcDbEntity
  8
LEVEL001
  6
Continuous
 62
     3
370
    20
100
AcDbPolyline
 90
        4
 70
     0
 43
0.0
 10
206.83224124035
 20
173.57115062537
 10
206.83224124035
 20
203.57115062537
 10
191.83224124035
 20
203.57115062537
 10
191.83224124035
 20
173.57115062537
  0
ARC
  5
1D6
330
18
100
AcDbEntity
  8
LEVEL001
  6
Continuous
 62
     3
370
    20
100
AcDbCircle
 10
195.58224124035
 20
180.06634115375
 30
0.0
 40
7.5
100
AcDbArc
 50
240.0
 51
299.99999999999
  0
ARC
  5
1D7
330
18
100
AcDbEntity
  8
LEVEL001
  6
Continuous
 62
     3
370
    20
100
AcDbCircle
 10
203.08224124035
 20
180.06634115375
 30
0.0
 40
7.5
100
AcDbArc
 50
239.99999999999
 51
299.99999999999
  0
ARC
  5
1D8
330
18
100
AcDbEntity
  8
LEVEL001
  6
Continuous
 62
     3
370
    20
100
AcDbCircle
 10
203.08224124034
 20
167.07596009698
 30
0.0
 40
7.5
100
AcDbArc
 50
59.999999999995
 51
120.0
  0
LINE
  5
1D9
330
18
100
AcDbEntity
  8
LEVEL001
  6
DASHDOT
 62
     1
370
    15
100
AcDbLine
 10
199.33224124035
 20
235.16032246769
 30
0.0
 11
199.33224124035
 21
168.57115062537
 31
0.0
  0
LINE
  5
1DA
330
18
100
AcDbEntity
  8
LEVEL001
  6
DOT
 62
     2
370
    20
100
AcDbLine
 10
189.68224124035
 20
219.97115062537
 30
0.0
 11
189.68224124035
 21
205.973460698
 31
0.0
  0
LINE
  5
1DB
330
18
100
AcDbEntity
  8
LEVEL001
  6
DOT
 62
     2
370
    20
100
AcDbLine
 10
191.28224124035
 20
219.97115062537
 30
0.0
 11
191.28224124035
 21
205.64027973127
 31
0.0
  0
LINE
  5
1DC
330
18
100
AcDbEntity
  8
LEVEL001
  6
DOT
 62
     2
370
    20
100
AcDbLine
 10
184.58224124035
 20
219.97115062537
 30
0.0
 11
184.58224124035
 21
209.64507606923
 31
0.0
  0
LINE
  5
1DD
330
18
100
AcDbEntity
  8
LEVEL001
  6
DOT
 62
     2
370
    20
100
AcDbLine
 10
186.18224124035
 20
219.97115062537
 30
0.0
 11
186.18224124035
 21
207.88434748544
 31
0.0
  0
ARC
  5
1DE
330
18
100
AcDbEntity
  8
LEVEL001
  6
DOT
 62
     2
370
    20
100
AcDbCircle
 10
187.93224124035
 20
219.97115062537
 30
0.0
 40
1.7500000000001
100
AcDbArc
 50
0.0
 51
180.0
  0
ARC
  5
1DF
330
18
100
AcDbEntity
  8
LEVEL001
  6
DOT
 62
     2
370
    20
100
AcDbCircle
 10
187.93224124035
 20
219.97115062537
 30
0.0
 40
3.3500000000001
100
AcDbArc
 50
0.0
 51
180.0
  0
LINE
  5
1E0
330
18
100
AcDbEntity
  8
LEVEL001
  6
Continuous
 62
     3
370
    20
100
AcDbLine
 10
189.68224124035
 20
205.973460698
 30
0.0
 11
189.68224124035
 21
192.07115062537
 31
0.0
  0
LINE
  5
1E1
330
18
100
AcDbEntity
  8
LEVEL001
  6
Continuous
 62
     3
370
    20
100
AcDbLine
 10
191.28224124035
 20
205.64027973127
 30
0.0
 11
191.28224124035
 21
192.07115062537
 31
0.0
  0
LINE
  5
1E2
330
18
100
AcDbEntity
  8
LEVEL001
  6
Continuous
 62
     3
370
    20
100
AcDbLine
 10
184.58224124035
 20
209.64507606923
 30
0.0
 11
184.58224124035
 21
192.07115062537
 31
0.0
  0
LINE
  5
1E3
330
18
100
AcDbEntity
  8
LEVEL001
  6
Continuous
 62
     3
370
    20
100
AcDbLine
 10
186.18224124035
 20
207.88434748544
 30
0.0
 11
186.18224124035
 21
192.07115062537
 31
0.0
  0
ARC
  5
1E4
330
18
100
AcDbEntity
  8
LEVEL001
  6
Continuous
 62
     3
370
    20
100
AcDbCircle
 10
187.93224124034
 20
176.92115062537
 30
0.0
 40
1.7500000000001
100
AcDbArc
 50
179.99999999999
 51
0.0
  0
ARC
  5
1E5
330
18
100
AcDbEntity
  8
LEVEL001
  6
Continuous
 62
     3
370
    20
100
AcDbCircle
 10
187.93224124034
 20
176.92115062536
 30
0.0
 40
3.3500000000001
100
AcDbArc
 50
179.99999999999
 51
0.0
  0
LINE
  5
1E6
330
18
100
AcDbEntity
  8
LEVEL001
  6
Continuous
 62
     3
370
    20
100
AcDbLine
 10
189.68224124034
 20
176.92115062536
 30
0.0
 11
189.68224124034
 21
190.07115062537
 31
0.0
  0
LINE
  5
1E7
330
18
100
AcDbEntity
  8
LEVEL001
  6
Continuous
 62
     3
370
    20
100
AcDbLine
 10
191.28224124034
 20
176.92115062536
 30
0.0
 11
191.28224124034
 21
190.07115062537
 31
0.0
  0
LINE
  5
1E8
330
18
100
AcDbEntity
  8
LEVEL001
  6
Continuous
 62
     3
370
    20
100
AcDbLine
 10
184.58224124034
 20
176.92115062537
 30
0.0
 11
184.58224124034
 21
190.07115062537
 31
0.0
  0
LINE
  5
1E9
330
18
100
AcDbEntity
  8
LEVEL001
  6
Continuous
 62
     3
370
    20
100
AcDbLine
 10
186.18224124034
 20
176.92115062536
 30
0.0
 11
186.18224124034
 21
190.07115062537
 31
0.0
  0
ARC
  5
1EA
330
18
100
AcDbEntity
  8
LEVEL001
  6
Continuous
 62
     3
370
    20
100
AcDbCircle
 10
185.78224124034
 20
189.37833030234
 30
0.0
 40
0.79999999999659
100
AcDbArc
 50
59.99999999999901
 51
120.0
  0
ARC
  5
1EB
330
18
100
AcDbEntity
  8
LEVEL001
  6
Continuous
 62
     3
370
    20
100
AcDbCircle
 10
184.98224124034
 20
189.37833030234
 30
0.0
 40
0.8000000000035
100
AcDbArc
 50
59.999999999996
 51
119.99999999999
  0
ARC
  5
1EC
330
18
100
AcDbEntity
  8
LEVEL001
  6
Continuous
 62
     3
370
    20
100
AcDbCircle
 10
184.98224124034
 20
190.7639709484
 30
0.0
 40
0.8000000000035
100
AcDbArc
 50
239.99999999999
 51
299.99999999999
  0
ARC
  5
1ED
330
18
100
AcDbEntity
  8
LEVEL001
  6
Continuous
 62
     3
370
    20
100
AcDbCircle
 10
184.98224124035
 20
192.7639709484
 30
0.0
 40
0.8
100
AcDbArc
 50
239.99999999999
 51
300.0
  0
ARC
  5
1EE
330
18
100
AcDbEntity
  8
LEVEL001
  6
Continuous
 62
     3
370
    20
100
AcDbCircle
 10
185.78224124035
 20
192.7639709484
 30
0.0
 40
0.80000000000009
100
AcDbArc
 50
239.99999999999
 51
299.99999999999
  0
ARC
  5
1EF
330
18
100
AcDbEntity
  8
LEVEL001
  6
Continuous
 62
     3
370
    20
100
AcDbCircle
 10
185.78224124035
 20
191.37833030234
 30
0.0
 40
0.80000000000009
100
AcDbArc
 50
59.999999999993
 51
120.0
  0
ARC
  5
1F0
330
18
100
AcDbEntity
  8
LEVEL001
  6
Continuous
 62
     3
370
    20
100
AcDbCircle
 10
190.88224124034
 20
189.37833030234
 30
0.0
 40
0.79999999999659
100
AcDbArc
 50
59.99999999999901
 51
120.0
  0
ARC
  5
1F1
330
18
100
AcDbEntity
  8
LEVEL001
  6
Continuous
 62
     3
370
    20
100
AcDbCircle
 10
190.08224124034
 20
189.37833030234
 30
0.0
 40
0.8000000000035
100
AcDbArc
 50
59.999999999987
 51
120.0
  0
ARC
  5
1F2
330
18
100
AcDbEntity
  8
LEVEL001
  6
Continuous
 62
     3
370
    20
100
AcDbCircle
 10
190.08224124034
 20
190.7639709484
 30
0.0
 40
0.8000000000035
100
AcDbArc
 50
239.99999999999
 51
299.99999999999
  0
ARC
  5
1F3
330
18
100
AcDbEntity
  8
LEVEL001
  6
Continuous
 62
     3
370
    20
100
AcDbCircle
 10
190.08224124035
 20
192.7639709484
 30
0.0
 40
0.8
100
AcDbArc
 50
239.99999999999
 51
300.0
  0
ARC
  5
1F4
330
18
100
AcDbEntity
  8
LEVEL001
  6
Continuous
 62
     3
370
    20
100
AcDbCircle
 10
190.88224124035
 20
192.7639709484
 30
0.0
 40
0.80000000000009
100
AcDbArc
 50
239.99999999999
 51
299.99999999999
  0
ARC
  5
1F5
330
18
100
AcDbEntity
  8
LEVEL001
  6
Continuous
 62
     3
370
    20
100
AcDbCircle
 10
190.88224124035
 20
191.37833030234
 30
0.0
 40
0.80000000000009
100
AcDbArc
 50
59.999999999993
 51
120.0
  0
LINE
  5
1F6
330
18
100
AcDbEntity
  8
LEVEL001
  6
DASHDOT
 62
     1
370
    15
100
AcDbLine
 10
207.89939179487
 20
200.57115062537
 30
0.0
 11
204.94795695966
 21
200.57115062537
 31
0.0
  0
LINE
  5
1F7
330
18
100
AcDbEntity
  8
LEVEL001
  6
DASHDOT
 62
     1
370
    15
100
AcDbLine
 10
195.58224124032
 20
201.73703299034
 30
0.0
 11
195.58224124032
 21
199.40526826039
 31
0.0
  0
LINE
  5
1F8
330
18
100
AcDbEntity
  8
LEVEL001
  6
DASHDOT
 62
     1
370
    15
100
AcDbLine
 10
194.61386719571
 20
200.57115062537
 30
0.0
 11
196.55061528493
 21
200.57115062537
 31
0.0
  0
ARC
  5
1F9
330
18
100
AcDbEntity
  8
LEVEL001
  6
DOT
 62
     1
370
    15
100
AcDbCircle
 10
199.33224124035
 20
216.27115062537
 30
0.0
 40
16.4
100
AcDbArc
 50
10.548276958762
 51
169.45172304124
  0
LINE
  5
1FA
330
18
100
AcDbEntity
  8
LEVEL001
  6
DASHDOT
 62
     1
370
    15
100
AcDbLine
 10
198.23224124035
 20
216.67339929562
 30
0.0
 11
200.43224124035
 21
216.67339929562
 31
0.0
  0
CIRCLE
  5
1FB
330
18
100
AcDbEntity
  8
LEVEL001
  6
Continuous
 62
     3
370
    20
100
AcDbCircle
 10
199.33224124035
 20
216.67339929562
 30
0.0
 40
0.5
  0
LINE
  5
1FC
330
18
100
AcDbEntity
  8
LEVEL001
  6
Continuous
 62
     3
370
    20
100
AcDbLine
 10
182.83224124035
 20
215.17115062537
 30
0.0
 11
215.83224124035
 21
215.17115062537
 31
0.0
  0
LINE
  5
1FD
330
18
100
AcDbEntity
  8
LEVEL001
  6
DOT
 62
     1
370
    15
100
AcDbLine
 10
215.45509777763
 20
219.27339929562
 30
0.0
 11
215.5321911557
 21
215.17115062537
 31
0.0
  0
LINE
  5
1FE
330
18
100
AcDbEntity
  8
LEVEL001
  6
DOT
 62
     1
370
    15
100
AcDbLine
 10
183.20938470306
 20
219.27339929562
 30
0.0
 11
183.13229132499
 21
215.17115062537
 31
0.0
  0
LINE
  5
1FF
330
18
100
AcDbEntity
  8
LEVEL001
  6
Continuous
 62
     3
370
    20
100
AcDbLine
 10
215.83224124035
 20
215.17115062537
 30
0.0
 11
215.76336137388
 21
218.94050944217
 31
0.0
  0
ARC
  5
200
330
18
100
AcDbEntity
  8
LEVEL001
  6
Continuous
 62
     3
370
    20
100
AcDbCircle
 10
211.76402905773
 20
218.86742712518
 30
0.0
 40
4.0
100
AcDbArc
 50
1.0468853298468
 51
11.796205268401
  0
LINE
  5
201
330
18
100
AcDbEntity
  8
LEVEL001
  6
Continuous
 62
     3
370
    20
100
AcDbLine
 10
182.83224124035
 20
215.17115062537
 30
0.0
 11
182.9011211068
 21
218.9405094421
 31
0.0
  0
ARC
  5
202
330
18
100
AcDbEntity
  8
LEVEL001
  6
Continuous
 62
     3
370
    20
100
AcDbCircle
 10
186.90045342295
 20
218.86742712512
 30
0.0
 40
4.0
100
AcDbArc
 50
168.20379473184
 51
178.9531146703
  0
ARC
  5
203
330
18
100
AcDbEntity
  8
LEVEL001
  6
Continuous
 62
     3
370
    20
100
AcDbCircle
 10
199.33224124035
 20
216.27115062537
 30
0.0
 40
16.7
100
AcDbArc
 50
11.796205268404
 51
168.20379473184
  0
ARC
  5
204
330
18
100
AcDbEntity
  8
LEVEL001
  6
Continuous
 62
     3
370
    20
100
AcDbCircle
 10
206.23224124035
 20
215.17115062537
 30
0.0
 40
9.6
100
AcDbArc
 50
270.0
 51
0.0
  0
LINE
  5
205
330
18
100
AcDbEntity
  8
LEVEL001
  6
Continuous
 62
     3
370
    20
100
AcDbLine
 10
215.83224124035
 20
215.17115062537
 30
0.0
 11
215.51224124035
 21
215.17115062537
 31
0.0
  0
POINT
  5
206
330
18
100
AcDbEntity
  8
LEVEL001
 62
     1
100
AcDbPoint
 10
202.33224124035
 20
206.57115062537
 30
0.0
  0
LINE
  5
207
330
18
100
AcDbEntity
  8
LEVEL001
  6
DOT
 62
     1
370
    15
100
AcDbLine
 10
199.33224124035
 20
206.57115062537
 30
0.0
 11
206.23224124035
 21
206.57115062537
 31
0.0
  0
ARC
  5
208
330
18
100
AcDbEntity
  8
LEVEL001
  6
DOT
 62
     1
370
    15
100
AcDbCircle
 10
206.23224124035
 20
215.17115062537
 30
0.0
 40
8.6
100
AcDbArc
 50
270.0
 51
0.0
  0
LINE
  5
209
330
18
100
AcDbEntity
  8
LEVEL001
  6
DOT
 62
     1
370
    15
100
AcDbLine
 10
215.03224124035
 20
218.17115062537
 30
0.0
 11
214.83224124035
 21
217.97115062537
 31
0.0
  0
LINE
  5
20A
330
18
100
AcDbEntity
  8
LEVEL001
  6
DOT
 62
     1
370
    15
100
AcDbLine
 10
214.83224124035
 20
215.17115062537
 30
0.0
 11
214.83224124035
 21
217.97115062537
 31
0.0
  0
LINE
  5
20B
330
18
100
AcDbEntity
  8
LEVEL001
  6
Continuous
 62
     3
370
    20
100
AcDbLine
 10
215.51224124035
 20
215.17115062537
 30
0.0
 11
199.33224124035
 21
215.17115062537
 31
0.0
  0
LINE
  5
20C
330
18
100
AcDbEntity
  8
LEVEL001
  6
Continuous
 62
     3
370
    20
100
AcDbLine
 10
206.23224124035
 20
205.57115062537
 30
0.0
 11
199.33224124035
 21
205.57115062537
 31
0.0
  0
LINE
  5
20D
330
18
100
AcDbEntity
  8
LEVEL001
  6
DASHDOT
 62
     1
370
    15
100
AcDbLine
 10
187.93224124035
 20
209.04660982625
 30
0.0
 11
187.93224124035
 21
205.57375514534
 31
0.0
  0
POINT
  5
20E
330
18
100
AcDbEntity
  8
LEVEL001
 62
     1
100
AcDbPoint
 10
200.83224124035
 20
206.57115062537
 30
0.0
  0
LINE
  5
20F
330
18
100
AcDbEntity
  8
LEVEL001
  6
DASHDOT
 62
     1
370
    15
100
AcDbLine
 10
199.33224124035
 20
235.16032246769
 30
0.0
 11
199.33224124035
 21
191.57115062537
 31
0.0
  0
ARC
  5
210
330
18
100
AcDbEntity
  8
LEVEL001
  6
Continuous
 62
     3
370
    20
100
AcDbCircle
 10
192.43224124035
 20
215.17115062537
 30
0.0
 40
9.6
100
AcDbArc
 50
180.0
 51
270.0
  0
LINE
  5
211
330
18
100
AcDbEntity
  8
LEVEL001
  6
Continuous
 62
     3
370
    20
100
AcDbLine
 10
182.83224124035
 20
215.17115062537
 30
0.0
 11
183.15224124035
 21
215.17115062537
 31
0.0
  0
POINT
  5
212
330
18
100
AcDbEntity
  8
LEVEL001
 62
     1
100
AcDbPoint
 10
196.33224124035
 20
206.57115062537
 30
0.0
  0
LINE
  5
213
330
18
100
AcDbEntity
  8
LEVEL001
  6
DOT
 62
     1
370
    15
100
AcDbLine
 10
199.33224124035
 20
206.57115062537
 30
0.0
 11
192.43224124035
 21
206.57115062537
 31
0.0
  0
ARC
  5
214
330
18
100
AcDbEntity
  8
LEVEL001
  6
DOT
 62
     1
370
    15
100
AcDbCircle
 10
192.43224124035
 20
215.17115062537
 30
0.0
 40
8.6
100
AcDbArc
 50
180.0
 51
270.0
  0
LINE
  5
215
330
18
100
AcDbEntity
  8
LEVEL001
  6
DOT
 62
     1
370
    15
100
AcDbLine
 10
183.63224124035
 20
218.17115062537
 30
0.0
 11
183.83224124035
 21
217.97115062537
 31
0.0
  0
LINE
  5
216
330
18
100
AcDbEntity
  8
LEVEL001
  6
DOT
 62
     1
370
    15
100
AcDbLine
 10
183.83224124035
 20
215.17115062537
 30
0.0
 11
183.83224124035
 21
217.97115062537
 31
0.0
  0
LINE
  5
217
330
18
100
AcDbEntity
  8
LEVEL001
  6
Continuous
 62
     3
370
    20
100
AcDbLine
 10
183.15224124035
 20
215.17115062537
 30
0.0
 11
199.33224124035
 21
215.17115062537
 31
0.0
  0
LINE
  5
218
330
18
100
AcDbEntity
  8
LEVEL001
  6
Continuous
 62
     3
370
    20
100
AcDbLine
 10
192.43224124035
 20
205.57115062537
 30
0.0
 11
199.33224124035
 21
205.57115062537
 31
0.0
  0
POINT
  5
219
330
18
100
AcDbEntity
  8
LEVEL001
 62
     1
100
AcDbPoint
 10
197.83224124035
 20
206.57115062537
 30
0.0
  0
ARC
  5
21A
330
18
100
AcDbEntity
  8
LEVEL001
  6
DOT
 62
     1
370
    15
100
AcDbCircle
 10
184.08224124035
 20
210.85403353175
 30
0.0
 40
0.2
100
AcDbArc
 50
207.33986850844
 51
0.0
  0
LINE
  5
21B
330
18
100
AcDbEntity
  8
LEVEL001
  6
DOT
 62
     1
370
    15
100
AcDbLine
 10
184.28224124035
 20
212.39311174875
 30
0.0
 11
184.28224124035
 21
210.85403353175
 31
0.0
  0
ARC
  5
21C
330
18
100
AcDbEntity
  8
LEVEL001
  6
DOT
 62
     1
370
    15
100
AcDbCircle
 10
191.78224124035
 20
205.79365095861
 30
0.0
 40
0.2
100
AcDbArc
 50
180.0
 51
266.03489359891
  0
LINE
  5
21D
330
18
100
AcDbEntity
  8
LEVEL001
  6
DOT
 62
     1
370
    15
100
AcDbLine
 10
191.58224124035
 20
206.39518913958
 30
0.0
 11
191.58224124035
 21
205.79365095861
 31
0.0
  0
ARC
  5
21E
330
18
100
AcDbEntity
  8
LEVEL001
  6
DOT
 62
     1
370
    15
100
AcDbCircle
 10
191.78224124035
 20
206.39518913958
 30
0.0
 40
0.2
100
AcDbArc
 50
85.764067646726
 51
180.0
  0
ARC
  5
21F
330
18
100
AcDbEntity
  8
LEVEL001
  6
DOT
 62
     1
370
    15
100
AcDbCircle
 10
184.08224124035
 20
212.39311174875
 30
0.0
 40
0.2
100
AcDbArc
 50
0.0000000000521102
 51
18.402246195996
  0
POINT
  5
220
330
18
100
AcDbEntity
  8
LEVEL001
 62
     1
100
AcDbPoint
 10
214.83224124035
 20
218.17115062537
 30
0.0
  0
LINE
  5
221
330
18
100
AcDbEntity
  8
LEVEL001
  6
DOT
 62
     1
370
    15
100
AcDbLine
 10
199.33224124035
 20
218.17115062537
 30
0.0
 11
215.03224124035
 21
218.17115062537
 31
0.0
  0
POINT
  5
222
330
18
100
AcDbEntity
  8
LEVEL001
 62
     1
100
AcDbPoint
 10
183.83224124035
 20
218.17115062537
 30
0.0
  0
LINE
  5
223
330
18
100
AcDbEntity
  8
LEVEL001
  6
DOT
 62
     1
370
    15
100
AcDbLine
 10
199.33224124035
 20
218.17115062537
 30
0.0
 11
183.63224124035
 21
218.17115062537
 31
0.0
  0
LINE
  5
224
330
18
100
AcDbEntity
  8
LEVEL001
  6
DOT
 62
     1
370
    15
100
AcDbLine
 10
215.25586237286
 20
218.17115062537
 30
0.0
 11
215.03224124035
 21
218.17115062537
 31
0.0
  0
LINE
  5
225
330
18
100
AcDbEntity
  8
LEVEL001
  6
DOT
 62
     1
370
    15
100
AcDbLine
 10
215.25586237286
 20
218.17115062537
 30
0.0
 11
215.45586237286
 21
217.97115062537
 31
0.0
  0
POINT
  5
226
330
18
100
AcDbEntity
  8
LEVEL001
 62
     1
100
AcDbPoint
 10
215.45586237286
 20
218.17115062537
 30
0.0
  0
LINE
  5
227
330
18
100
AcDbEntity
  8
LEVEL001
  6
DOT
 62
     1
370
    15
100
AcDbLine
 10
215.51224124035
 20
215.17115062537
 30
0.0
 11
215.45586237286
 21
217.97115062537
 31
0.0
  0
LINE
  5
228
330
18
100
AcDbEntity
  8
LEVEL001
  6
DOT
 62
     1
370
    15
100
AcDbLine
 10
183.40862010784
 20
218.17115062537
 30
0.0
 11
183.63224124035
 21
218.17115062537
 31
0.0
  0
LINE
  5
229
330
18
100
AcDbEntity
  8
LEVEL001
  6
DOT
 62
     1
370
    15
100
AcDbLine
 10
183.40862010784
 20
218.17115062537
 30
0.0
 11
183.20862010784
 21
217.97115062537
 31
0.0
  0
POINT
  5
22A
330
18
100
AcDbEntity
  8
LEVEL001
 62
     1
100
AcDbPoint
 10
183.20862010784
 20
218.17115062537
 30
0.0
  0
LINE
  5
22B
330
18
100
AcDbEntity
  8
LEVEL001
  6
DOT
 62
     1
370
    15
100
AcDbLine
 10
183.15224124035
 20
215.17115062537
 30
0.0
 11
183.20862010784
 21
217.97115062537
 31
0.0
  0
LINE
  5
22C
330
18
100
AcDbEntity
  8
LEVEL001
  6
Continuous
 62
     3
370
    20
100
AcDbLine
 10
183.32944309069
 20
152.8676307671
 30
0.0
 11
213.32944309069
 21
152.8676307671
 31
0.0
  0
LINE
  5
22D
330
18
100
AcDbEntity
  8
LEVEL001
  6
Continuous
 62
     3
370
    20
100
AcDbLine
 10
185.68224124035
 20
84.009457218151
 30
0.0
 11
186.98224124035
 21
84.009457218151
 31
0.0
  0
LINE
  5
22E
330
18
100
AcDbEntity
  8
LEVEL001
  6
Continuous
 62
     3
370
    20
100
AcDbLine
 10
185.35518399752
 20
89.460411265294
 30
0.0
 11
185.68224124035
 21
84.009457218151
 31
0.0
  0
LINE
  5
22F
330
18
100
AcDbEntity
  8
LEVEL001
  6
Continuous
 62
     3
370
    20
100
AcDbLine
 10
189.23224124035
 20
89.409457218151
 30
0.0
 11
189.23224124034
 21
83.009457218151
 31
0.0
  0
LINE
  5
230
330
18
100
AcDbEntity
  8
LEVEL001
  6
Continuous
 62
     3
370
    20
100
AcDbLine
 10
189.23224124034
 20
76.609457218151
 30
0.0
 11
189.23224124034
 21
83.009457218151
 31
0.0
  0
LINE
  5
231
330
18
100
AcDbEntity
  8
LEVEL001
  6
Continuous
 62
     3
370
    20
100
AcDbLine
 10
190.33224124035
 20
95.009457218151
 30
0.0
 11
189.23224124035
 21
89.409457218151
 31
0.0
  0
LINE
  5
232
330
18
100
AcDbEntity
  8
LEVEL001
  6
Continuous
 62
     3
370
    20
100
AcDbLine
 10
190.33224124034
 20
71.009457218151
 30
0.0
 11
189.23224124034
 21
76.609457218151
 31
0.0
  0
ARC
  5
233
330
18
100
AcDbEntity
  8
LEVEL001
  6
Continuous
 62
     3
370
    20
100
AcDbCircle
 10
188.3627095303
 20
93.454756038807
 30
0.0
 40
5.0
100
AcDbArc
 50
180.0
 51
233.02223081455
  0
LINE
  5
234
330
18
100
AcDbEntity
  8
LEVEL001
  6
HIDDEN
 62
     1
370
    15
100
AcDbLine
 10
189.83151314075
 20
66.579457218151
 30
0.0
 11
190.33224124034
 21
66.579457218151
 31
0.0
  0
LINE
  5
235
330
18
100
AcDbEntity
  8
LEVEL001
  6
HIDDEN
 62
     1
370
    15
100
AcDbLine
 10
189.83151314075
 20
66.579457218151
 30
0.0
 11
189.83151314075
 21
66.109457218151
 31
0.0
  0
LINE
  5
236
330
18
100
AcDbEntity
  8
LEVEL001
  6
HIDDEN
 62
     1
370
    15
100
AcDbLine
 10
189.83151314075
 20
68.309457218151
 30
0.0
 11
189.83151314075
 21
67.839457218151
 31
0.0
  0
LINE
  5
237
330
18
100
AcDbEntity
  8
LEVEL001
  6
HIDDEN
 62
     1
370
    15
100
AcDbLine
 10
189.83151314075
 20
67.839457218151
 30
0.0
 11
190.33224124034
 21
67.839457218151
 31
0.0
  0
LINE
  5
238
330
18
100
AcDbEntity
  8
LEVEL001
  6
Continuous
 62
     3
370
    20
100
AcDbLine
 10
183.33458036362
 20
96.993324048293
 30
0.0
 11
183.3627095303
 21
93.454756038807
 31
0.0
  0
LINE
  5
239
330
18
100
AcDbEntity
  8
LEVEL001
  6
DOT
 62
     1
370
    15
100
AcDbLine
 10
189.63151314075
 20
66.159457218151
 30
0.0
 11
189.83151314075
 21
66.159457218151
 31
0.0
  0
LINE
  5
23A
330
18
100
AcDbEntity
  8
LEVEL001
  6
DOT
 62
     1
370
    15
100
AcDbLine
 10
189.83151314075
 20
68.259457218151
 30
0.0
 11
189.83151314075
 21
66.159457218151
 31
0.0
  0
LINE
  5
23B
330
18
100
AcDbEntity
  8
LEVEL001
  6
DOT
 62
     1
370
    15
100
AcDbLine
 10
189.63151314075
 20
68.259457218151
 30
0.0
 11
189.83151314075
 21
68.259457218151
 31
0.0
  0
LINE
  5
23C
330
18
100
AcDbEntity
  8
LEVEL001
  6
Continuous
 62
     3
370
    20
100
AcDbLine
 10
189.03151314075
 20
66.759457218151
 30
0.0
 11
189.03151314075
 21
67.659457218151
 31
0.0
  0
LINE
  5
23D
330
18
100
AcDbEntity
  8
LEVEL001
  6
Continuous
 62
     3
370
    20
100
AcDbLine
 10
190.33224124034
 20
64.909457218151
 30
0.0
 11
190.33224124034
 21
71.009457218151
 31
0.0
  0
ARC
  5
23E
330
18
100
AcDbEntity
  8
LEVEL001
  6
Continuous
 62
     3
370
    20
100
AcDbCircle
 10
195.24372708354
 20
70.441694344509
 30
0.0
 40
12.0
100
AcDbArc
 50
142.92793628941
 51
187.12650048794
  0
LINE
  5
23F
330
18
100
AcDbEntity
  8
LEVEL001
  6
HIDDEN
 62
     1
370
    15
100
AcDbLine
 10
189.83151314075
 20
99.43945721815
 30
0.0
 11
190.33224124034
 21
99.439457218151
 31
0.0
  0
LINE
  5
240
330
18
100
AcDbEntity
  8
LEVEL001
  6
HIDDEN
 62
     1
370
    15
100
AcDbLine
 10
189.83151314075
 20
99.43945721815
 30
0.0
 11
189.83151314075
 21
99.90945721815
 31
0.0
  0
LINE
  5
241
330
18
100
AcDbEntity
  8
LEVEL001
  6
HIDDEN
 62
     1
370
    15
100
AcDbLine
 10
189.83151314075
 20
97.70945721815
 30
0.0
 11
189.83151314075
 21
98.17945721815
 31
0.0
  0
LINE
  5
242
330
18
100
AcDbEntity
  8
LEVEL001
  6
HIDDEN
 62
     1
370
    15
100
AcDbLine
 10
189.83151314075
 20
98.17945721815
 30
0.0
 11
190.33224124034
 21
98.17945721815
 31
0.0
  0
LINE
  5
243
330
18
100
AcDbEntity
  8
LEVEL001
  6
DOT
 62
     1
370
    15
100
AcDbLine
 10
189.63151314075
 20
99.85945721815
 30
0.0
 11
189.83151314075
 21
99.85945721815
 31
0.0
  0
LINE
  5
244
330
18
100
AcDbEntity
  8
LEVEL001
  6
DOT
 62
     1
370
    15
100
AcDbLine
 10
189.83151314075
 20
97.75945721815
 30
0.0
 11
189.83151314075
 21
99.85945721815
 31
0.0
  0
LINE
  5
245
330
18
100
AcDbEntity
  8
LEVEL001
  6
DOT
 62
     1
370
    15
100
AcDbLine
 10
189.63151314075
 20
97.75945721815
 30
0.0
 11
189.83151314075
 21
97.75945721815
 31
0.0
  0
LINE
  5
246
330
18
100
AcDbEntity
  8
LEVEL001
  6
Continuous
 62
     3
370
    20
100
AcDbLine
 10
189.03151314075
 20
99.25945721815
 30
0.0
 11
189.03151314075
 21
98.35945721815
 31
0.0
  0
LINE
  5
247
330
18
100
AcDbEntity
  8
LEVEL001
  6
Continuous
 62
     3
370
    20
100
AcDbLine
 10
190.33224124035
 20
101.10945721815
 30
0.0
 11
190.33224124035
 21
95.009457218151
 31
0.0
  0
LWPOLYLINE
  5
248
330
18
100
AcDbEntity
  8
LEVEL001
  6
Continuous
 62
     3
370
    20
100
AcDbPolyline
 90
       65
 70
     0
 43
0.0
 10
182.48432426588
 20
96.039783308683
 10
182.4642177549
 20
95.58435196898
 10
182.44417982109
 20
95.129297945959
 10
182.42427904161
 20
94.674998556304
 10
182.40458399364
 20
94.221831116699
 10
182.38516325434
 20
93.770172943827
 10
182.36608540088
 20
93.320401354372
 10
182.34741901044
 20
92.872893665017
 10
182.32923266018
 20
92.428027192447
 10
182.31159492727
 20
91.986179253345
 10
182.29457438888
 20
91.547727164394
 10
182.27823962218
 20
91.113048242278
 10
182.26265920433
 20
90.682519803681
 10
182.24790171252
 20
90.256519165286
 10
182.2340357239
 20
89.835423643777
 10
182.22112981565
 20
89.419610555837
 10
182.20925256493
 20
89.009457218151
 10
182.19845298728
 20
88.605215175173
 10
182.18870185168
 20
88.20663288245
 10
182.17995036548
 20
87.813333023296
 10
182.172149736
 20
87.424938281029
 10
182.1652511706
 20
87.041071338965
 10
182.15920587663
 20
86.661354880421
 10
182.15396506141
 20
86.285411588712
 10
182.1494799323
 20
85.912864147155
 10
182.14570169664
 20
85.543335239067
 10
182.14258156177
 20
85.176447547764
 10
182.14007073504
 20
84.811823756562
 10
182.13812042378
 20
84.449086548779
 10
182.13668183534
 20
84.087858607729
 10
182.13570617707
 20
83.727762616731
 10
182.1351446563
 20
83.368421259099
 10
182.13494848037
 20
83.009457218151
 10
182.13508511028
 20
82.650493177202
 10
182.1355870215
 20
82.29115181957
 10
182.13650294319
 20
81.93105582857
 10
182.13788160447
 20
81.56982788752
 10
182.13977173447
 20
81.207090679735
 10
182.14222206234
 20
80.842466888532
 10
182.1452813172
 20
80.475579197228
 10
182.1489982282
 20
80.106050289139
 10
182.15342152445
 20
79.733502847582
 10
182.15859993511
 20
79.357559555872
 10
182.1645821893
 20
78.977843097328
 10
182.17141701615
 20
78.593976155264
 10
182.17915314481
 20
78.205581412998
 10
182.1878393044
 20
77.812281553846
 10
182.19752422406
 20
77.413699261125
 10
182.20825663293
 20
77.009457218151
 10
182.22006571967
 20
76.599303880468
 10
182.2329025111
 20
76.183490792532
 10
182.24669849358
 20
75.762395271028
 10
182.26138515346
 20
75.336394632637
 10
182.27689397709
 20
74.905866194045
 10
182.29315645083
 20
74.471187271934
 10
182.31010406103
 20
74.032735182987
 10
182.32766829405
 20
73.590887243889
 10
182.34578063623
 20
73.146020771323
 10
182.36437257394
 20
72.698513081972
 10
182.38337559353
 20
72.24874149252
 10
182.40272118135
 20
71.797083319651
 10
182.42234082375
 20
71.343915880047
 10
182.44216600709
 20
70.889616490393
 10
182.46212821772
 20
70.434562467372
 10
182.482158942
 20
69.979131127667
  0
LWPOLYLINE
  5
249
330
18
100
AcDbEntity
  8
LEVEL001
  6
Continuous
 62
     3
370
    20
100
AcDbPolyline
 90
       65
 70
     0
 43
0.0
 10
183.28161702585
 20
96.039783308683
 10
183.26154849383
 20
95.583622489705
 10
183.24154764535
 20
95.127856151627
 10
183.22168216396
 20
94.672878775351
 10
183.20201973321
 20
94.219084841781
 10
183.18262803665
 20
93.766868831816
 10
183.16357475781
 20
93.316625226359
 10
183.14492758025
 20
92.868748506313
 10
183.12675418752
 20
92.423633152578
 10
183.10912226316
 20
91.981673646057
 10
183.09209949071
 20
91.543264467652
 10
183.07575355373
 20
91.108800098264
 10
183.06015213575
 20
90.678675018796
 10
183.04536292034
 20
90.253283710148
 10
183.03145359103
 20
89.833020653223
 10
183.01849183137
 20
89.418280328924
 10
183.0065453249
 20
89.009457218151
 10
182.99566308717
 20
88.60680286536
 10
182.98581946164
 20
88.209997069224
 10
182.97697012376
 20
87.818576691968
 10
182.969070749
 20
87.432078595816
 10
182.9620770128
 20
87.050039642994
 10
182.95594459062
 20
86.671996695728
 10
182.95062915793
 20
86.297486616242
 10
182.94608639016
 20
85.926046266762
 10
182.94227196279
 20
85.557212509512
 10
182.93914155126
 20
85.190522206719
 10
182.93665083103
 20
84.825512220607
 10
182.93475547756
 20
84.461719413402
 10
182.9334111663
 20
84.098680647328
 10
182.93257357271
 20
83.735932784612
 10
182.93219837224
 20
83.373012687477
 10
182.93224124035
 20
83.009457218151
 10
182.93267053163
 20
82.644871895729
 10
182.93350531725
 20
82.279136866803
 10
182.93477734751
 20
81.912200934836
 10
182.93651837273
 20
81.54401290329
 10
182.93876014321
 20
81.174521575629
 10
182.94153440924
 20
80.803675755315
 10
182.94487292115
 20
80.431424245811
 10
182.94880742923
 20
80.057715850581
 10
182.95336968379
 20
79.682499373088
 10
182.95859143514
 20
79.305723616794
 10
182.96450443358
 20
78.927337385163
 10
182.97114042942
 20
78.547289481657
 10
182.97853117297
 20
78.16552870974
 10
182.98670841453
 20
77.782003872875
 10
182.9957039044
 20
77.396663774524
 10
183.0055493929
 20
77.009457218151
 10
183.01626215372
 20
76.620361515543
 10
183.02780155417
 20
76.229468011786
 10
183.04011248493
 20
75.836896560289
 10
183.05313983669
 20
75.442767014463
 10
183.06682850015
 20
75.047199227718
 10
183.081123366
 20
74.650313053464
 10
183.09596932494
 20
74.25222834511
 10
183.11131126764
 20
73.853064956066
 10
183.12709408481
 20
73.452942739743
 10
183.14326266713
 20
73.05198154955
 10
183.15976190531
 20
72.650301238898
 10
183.17653669002
 20
72.248021661195
 10
183.19353191197
 20
71.845262669853
 10
183.21069246184
 20
71.442144118281
 10
183.22796323033
 20
71.03878585989
 10
183.24528910812
 20
70.635307748088
  0
POINT
  5
24A
330
18
100
AcDbEntity
  8
LEVEL001
 62
     2
100
AcDbPoint
 10
190.33224124035
 20
83.009457218151
 30
0.0
  0
ARC
  5
24B
330
18
100
AcDbEntity
  8
LEVEL001
  6
Continuous
 62
     3
370
    20
100
AcDbCircle
 10
182.93728760363
 20
68.979131127634
 30
0.0
 40
0.4
100
AcDbArc
 50
189.81802439686
 51
356.24988759823
  0
ARC
  5
24C
330
18
100
AcDbEntity
  8
LEVEL001
  6
Continuous
 62
     3
370
    20
100
AcDbCircle
 10
182.93728760365
 20
97.039783308676
 30
0.0
 40
0.4
100
AcDbArc
 50
353.33014694041
 51
170.18197560322
  0
LWPOLYLINE
  5
24D
330
18
100
AcDbEntity
  8
LEVEL001
  6
Continuous
 62
     3
370
    20
100
AcDbPolyline
 90
      161
 70
     0
 43
0.0
 10
182.54314588191
 20
97.107991102817
 10
182.52431766702
 20
96.991870087535
 10
182.50545260245
 20
96.875395252192
 10
182.48651383852
 20
96.758212776729
 10
182.46746452555
 20
96.639968841089
 10
182.44826781386
 20
96.520309625212
 10
182.42888685379
 20
96.398881309039
 10
182.40928479564
 20
96.275330072512
 10
182.38942478975
 20
96.149302095573
 10
182.36926998644
 20
96.020443558163
 10
182.34878353603
 20
95.888400640223
 10
182.32792858884
 20
95.752819521694
 10
182.30666829519
 20
95.613346382519
 10
182.28496580542
 20
95.469627402637
 10
182.26278426983
 20
95.321308761992
 10
182.24008683876
 20
95.168036640524
 10
182.21683666253
 20
95.009457218174
 10
182.19301738723
 20
94.845350410443
 10
182.16869464212
 20
94.676031075062
 10
182.14395455221
 20
94.50194780532
 10
182.1188832425
 20
94.323549194505
 10
182.09356683803
 20
94.141283835906
 10
182.06809146381
 20
93.955600322812
 10
182.04254324484
 20
93.766947248511
 10
182.01700830616
 20
93.575773206293
 10
181.99157277278
 20
93.382526789446
 10
181.96632276971
 20
93.187656591258
 10
181.94134442197
 20
92.991611205018
 10
181.91672385459
 20
92.794839224016
 10
181.89254719256
 20
92.597789241539
 10
181.86890056092
 20
92.400909850877
 10
181.84587008468
 20
92.204649645318
 10
181.82354188885
 20
92.009457218151
 10
181.80198266197
 20
91.815686389434
 10
181.78118134659
 20
91.623311886305
 10
181.76110744881
 20
91.432213662674
 10
181.74173047468
 20
91.242271672448
 10
181.7230199303
 20
91.053365869537
 10
181.70494532174
 20
90.865376207849
 10
181.68747615508
 20
90.678182641293
 10
181.6705819364
 20
90.491665123778
 10
181.65423217177
 20
90.305703609211
 10
181.63839636727
 20
90.120178051503
 10
181.62304402899
 20
89.93496840456
 10
181.60814466299
 20
89.749954622294
 10
181.59366777536
 20
89.56501665861
 10
181.57958287218
 20
89.38003446742
 10
181.56585945951
 20
89.19488800263
 10
181.55246704345
 20
89.009457218151
 10
181.53938205513
 20
88.823647340751
 10
181.52660862593
 20
88.637464688647
 10
181.51415781232
 20
88.450940852915
 10
181.50204067073
 20
88.264107424632
 10
181.49026825763
 20
88.076995994875
 10
181.47885162946
 20
87.889638154719
 10
181.46780184266
 20
87.702065495243
 10
181.4571299537
 20
87.514309607522
 10
181.44684701901
 20
87.326402082633
 10
181.43696409506
 20
87.138374511653
 10
181.42749223829
 20
86.950258485658
 10
181.41844250515
 20
86.762085595726
 10
181.40982595209
 20
86.573887432932
 10
181.40165363556
 20
86.385695588354
 10
181.39393661201
 20
86.197541653068
 10
181.38668593789
 20
86.009457218151
 10
181.37991001353
 20
85.821467556463
 10
181.37360661473
 20
85.633572668006
 10
181.36777086119
 20
85.445766234562
 10
181.36239787259
 20
85.258041937918
 10
181.35748276861
 20
85.070393459858
 10
181.35302066894
 20
84.882814482167
 10
181.34900669327
 20
84.695298686629
 10
181.34543596129
 20
84.507839755028
 10
181.34230359267
 20
84.32043136915
 10
181.33960470711
 20
84.13306721078
 10
181.33733442429
 20
83.945740961701
 10
181.3354878639
 20
83.758446303699
 10
181.33406014563
 20
83.571176918558
 10
181.33304638915
 20
83.383926488063
 10
181.33244171416
 20
83.196688693999
 10
181.33224124035
 20
83.00945721815
 10
181.33244171416
 20
82.822225742301
 10
181.33304638915
 20
82.634987948237
 10
181.33406014562
 20
82.447737517743
 10
181.33548786389
 20
82.260468132602
 10
181.33733442428
 20
82.0731734746
 10
181.3396047071
 20
81.885847225522
 10
181.34230359266
 20
81.698483067152
 10
181.34543596127
 20
81.511074681274
 10
181.34900669326
 20
81.323615749674
 10
181.35302066893
 20
81.136099954136
 10
181.35748276859
 20
80.948520976444
 10
181.36239787257
 20
80.760872498384
 10
181.36777086118
 20
80.57314820174
 10
181.37360661472
 20
80.385341768297
 10
181.37991001352
 20
80.197446879839
 10
181.38668593789
 20
80.009457218151
 10
181.39393661201
 20
79.821372783233
 10
181.40165363556
 20
79.633218847946
 10
181.40982595209
 20
79.445027003367
 10
181.41844250515
 20
79.256828840572
 10
181.42749223829
 20
79.068655950639
 10
181.43696409506
 20
78.880539924644
 10
181.44684701902
 20
78.692512353664
 10
181.4571299537
 20
78.504604828775
 10
181.46780184266
 20
78.316848941054
 10
181.47885162946
 20
78.129276281577
 10
181.49026825763
 20
77.941918441422
 10
181.50204067073
 20
77.754807011665
 10
181.51415781231
 20
77.567973583383
 10
181.52660862592
 20
77.381449747652
 10
181.53938205511
 20
77.195267095549
 10
181.55246704342
 20
77.009457218151
 10
181.56585945948
 20
76.824026433672
 10
181.57958287214
 20
76.638879968884
 10
181.59366777532
 20
76.453897777695
 10
181.60814466295
 20
76.268959814013
 10
181.62304402894
 20
76.083946031747
 10
181.63839636723
 20
75.898736384806
 10
181.65423217172
 20
75.713210827098
 10
181.67058193635
 20
75.527249312532
 10
181.68747615503
 20
75.340731795016
 10
181.70494532169
 20
75.15353822846
 10
181.72301993025
 20
74.965548566772
 10
181.74173047464
 20
74.77664276386
 10
181.76110744877
 20
74.586700773633
 10
181.78118134656
 20
74.39560255
 10
181.80198266194
 20
74.20322804687
 10
181.82354188884
 20
74.009457218151
 10
181.84587008467
 20
73.814264790981
 10
181.86890056093
 20
73.61800458542
 10
181.89254719258
 20
73.421125194756
 10
181.91672385461
 20
73.224075212278
 10
181.94134442201
 20
73.027303231275
 10
181.96632276975
 20
72.831257845035
 10
181.99157277282
 20
72.636387646847
 10
182.01700830621
 20
72.443141230001
 10
182.0425432449
 20
72.251967187784
 10
182.06809146386
 20
72.063314113485
 10
182.09356683808
 20
71.877630600394
 10
182.11888324255
 20
71.695365241798
 10
182.14395455225
 20
71.516966630988
 10
182.16869464216
 20
71.34288336125
 10
182.19301738726
 20
71.173564025875
 10
182.21683666253
 20
71.009457218151
 10
182.24008683875
 20
70.850877795808
 10
182.26278426981
 20
70.697605674346
 10
182.28496580538
 20
70.549287033707
 10
182.30666829514
 20
70.405568053831
 10
182.32792858877
 20
70.26609491466
 10
182.34878353595
 20
70.130513796134
 10
182.36926998636
 20
69.998470878197
 10
182.38942478966
 20
69.869612340787
 10
182.40928479555
 20
69.743584363848
 10
182.42888685369
 20
69.620033127319
 10
182.44826781377
 20
69.498604811143
 10
182.46746452545
 20
69.378945595261
 10
182.48651383843
 20
69.260701659613
 10
182.50545260238
 20
69.143519184142
 10
182.52431766697
 20
69.027044348788
 10
182.54314588189
 20
68.910923333493
  0
ARC
  5
24E
330
18
100
AcDbEntity
  8
LEVEL001
  6
Continuous
 62
     3
370
    20
100
AcDbCircle
 10
186.30749408502
 20
77.193267479421
 30
0.0
 40
0.8
100
AcDbArc
 50
21.936801848504
 51
142.9279362894
  0
LINE
  5
24F
330
18
100
AcDbEntity
  8
LEVEL001
  6
Continuous
 62
     3
370
    20
100
AcDbLine
 10
187.29013891535
 20
89.141085134907
 30
0.0
 11
186.98224124035
 21
84.009457218151
 31
0.0
  0
LINE
  5
250
330
18
100
AcDbEntity
  8
LEVEL001
  6
HIDDEN
 62
     1
370
    15
100
AcDbLine
 10
189.50313788045
 20
99.90945721815
 30
0.0
 11
189.83151314075
 21
99.90945721815
 31
0.0
  0
ARC
  5
251
330
18
100
AcDbEntity
  8
LEVEL001
  6
DOT
 62
     1
370
    15
100
AcDbCircle
 10
189.63151314075
 20
99.25945721815
 30
0.0
 40
0.6
100
AcDbArc
 50
89.99999999960899
 51
102.62388350062
  0
ARC
  5
252
330
18
100
AcDbEntity
  8
LEVEL001
  6
DOT
 62
     1
370
    15
100
AcDbCircle
 10
189.63151314077
 20
98.35945721815
 30
0.0
 40
0.6
100
AcDbArc
 50
242.30847316514
 51
269.99999999869
  0
LINE
  5
253
330
18
100
AcDbEntity
  8
LEVEL001
  6
HIDDEN
 62
     1
370
    15
100
AcDbLine
 10
189.34025552003
 20
97.70945721815
 30
0.0
 11
189.83151314075
 21
97.70945721815
 31
0.0
  0
ARC
  5
254
330
18
100
AcDbEntity
  8
LEVEL001
  6
Continuous
 62
     3
370
    20
100
AcDbCircle
 10
189.63151314075
 20
98.359457218157
 30
0.0
 40
0.6
100
AcDbArc
 50
180.00000000059
 51
242.30847316659
  0
ARC
  5
255
330
18
100
AcDbEntity
  8
LEVEL001
  6
Continuous
 62
     3
370
    20
100
AcDbCircle
 10
189.63151314075
 20
99.259457218151
 30
0.0
 40
0.6
100
AcDbArc
 50
102.62388350102
 51
180.00000000008
  0
LINE
  5
256
330
18
100
AcDbEntity
  8
LEVEL001
  6
HIDDEN
 62
     1
370
    15
100
AcDbLine
 10
189.34025552003
 20
68.309457218151
 30
0.0
 11
189.83151314075
 21
68.309457218151
 31
0.0
  0
ARC
  5
257
330
18
100
AcDbEntity
  8
LEVEL001
  6
DOT
 62
     1
370
    15
100
AcDbCircle
 10
189.63151314077
 20
67.659457218151
 30
0.0
 40
0.6
100
AcDbArc
 50
90.000000001307
 51
117.69152683485
  0
ARC
  5
258
330
18
100
AcDbEntity
  8
LEVEL001
  6
DOT
 62
     1
370
    15
100
AcDbCircle
 10
189.63151314075
 20
66.759457218151
 30
0.0
 40
0.6
100
AcDbArc
 50
257.37611649929
 51
270.00000000034
  0
LINE
  5
259
330
18
100
AcDbEntity
  8
LEVEL001
  6
HIDDEN
 62
     1
370
    15
100
AcDbLine
 10
189.50313788045
 20
66.109457218151
 30
0.0
 11
189.83151314075
 21
66.109457218151
 31
0.0
  0
ARC
  5
25A
330
18
100
AcDbEntity
  8
LEVEL001
  6
Continuous
 62
     3
370
    20
100
AcDbCircle
 10
189.63151314075
 20
66.75945721815
 30
0.0
 40
0.6
100
AcDbArc
 50
179.99999999993
 51
257.37611649898
  0
ARC
  5
25B
330
18
100
AcDbEntity
  8
LEVEL001
  6
Continuous
 62
     3
370
    20
100
AcDbCircle
 10
189.63151314075
 20
67.659457218145
 30
0.0
 40
0.6
100
AcDbArc
 50
117.69152683341
 51
179.99999999941
  0
ARC
  5
25C
330
18
100
AcDbEntity
  8
LEVEL001
  6
Continuous
 62
     3
370
    20
100
AcDbCircle
 10
155.23301175519
 20
101.34069981068
 30
0.0
 40
34.3
100
AcDbArc
 50
339.16524836755
 51
359.6181751394
  0
ARC
  5
25D
330
18
100
AcDbEntity
  8
LEVEL001
  6
Continuous
 62
     3
370
    20
100
AcDbCircle
 10
155.23301175519
 20
64.678214625623
 30
0.0
 40
34.3
100
AcDbArc
 50
0.3818248606021801
 51
21.936801848487
  0
ARC
  5
25E
330
18
100
AcDbEntity
  8
LEVEL001
  6
Continuous
 62
     3
370
    20
100
AcDbCircle
 10
189.93224124034
 20
64.909457218153
 30
0.0
 40
0.4
100
AcDbArc
 50
269.99999999995
 51
0.0
  0
ARC
  5
25F
330
18
100
AcDbEntity
  8
LEVEL001
  6
Continuous
 62
     3
370
    20
100
AcDbCircle
 10
189.93224124034
 20
64.909457218153
 30
0.0
 40
0.4
100
AcDbArc
 50
180.38182486092
 51
269.99999999998
  0
ARC
  5
260
330
18
100
AcDbEntity
  8
LEVEL001
  6
Continuous
 62
     3
370
    20
100
AcDbCircle
 10
189.93224124034
 20
101.10945721815
 30
0.0
 40
0.4
100
AcDbArc
 50
0.0000000003094044
 51
90.000000000049
  0
ARC
  5
261
330
18
100
AcDbEntity
  8
LEVEL001
  6
Continuous
 62
     3
370
    20
100
AcDbCircle
 10
189.93224124034
 20
101.10945721815
 30
0.0
 40
0.4
100
AcDbArc
 50
90.00000000002001
 51
179.61817513909
  0
LWPOLYLINE
  5
262
330
18
100
AcDbEntity
  8
LEVEL001
  6
DOT
 62
     1
370
    15
100
AcDbPolyline
 90
        4
 70
     0
 43
0.0
 10
189.83151314075
 20
66.609457218165
 10
193.03151314075
 20
66.609457218165
 10
193.03151314075
 20
67.809457218165
 10
189.83151314073
 20
67.809457218165
  0
LINE
  5
263
330
18
100
AcDbEntity
  8
LEVEL001
  6
DASHDOT
 62
     1
370
    15
100
AcDbLine
 10
188.51547494274
 20
67.209457218151
 30
0.0
 11
193.56028738569
 21
67.209457218151
 31
0.0
  0
LWPOLYLINE
  5
264
330
18
100
AcDbEntity
  8
LEVEL001
  6
DOT
 62
     1
370
    15
100
AcDbPolyline
 90
        4
 70
     0
 43
0.0
 10
189.83151314075
 20
99.409457218137
 10
193.03151314075
 20
99.409457218137
 10
193.03151314075
 20
98.209457218137
 10
189.83151314073
 20
98.209457218137
  0
LINE
  5
265
330
18
100
AcDbEntity
  8
LEVEL001
  6
DASHDOT
 62
     1
370
    15
100
AcDbLine
 10
188.51547494274
 20
98.80945721815
 30
0.0
 11
193.56028738569
 21
98.80945721815
 31
0.0
  0
TEXT
  5
266
330
18
100
AcDbEntity
  8
LEVEL001
 62
     3
370
    20
100
AcDbText
 10
193.46160515585
 20
29.975755375835
 30
0.0
 40
5.0
  1
Ｓ＝１：５
 41
0.5
 72
     5
 11
205.96160515585
 21
29.975755375835
 31
0.0
100
AcDbText
  0
TEXT
  5
267
330
18
100
AcDbEntity
  8
LEVEL001
 62
     3
370
    20
100
AcDbText
 10
179.71160515585
 20
35.975755375835
 30
0.0
 40
5.0
  1
ロープ掛け部詳細
 72
     5
 11
219.71160515585
 21
35.975755375835
 31
0.0
100
AcDbText
  0
TEXT
  5
268
330
18
100
AcDbEntity
  8
LEVEL001
 62
     3
370
    20
100
AcDbText
 10
192.07944309069
 20
147.8676307671
 30
0.0
 40
5.0
  1
Ｓ＝１：５
 41
0.5
 72
     5
 11
204.57944309069
 21
147.8676307671
 31
0.0
100
AcDbText
  0
TEXT
  5
269
330
18
100
AcDbEntity
  8
LEVEL001
 62
     3
370
    20
100
AcDbText
 10
185.82944309069
 20
153.8676307671
 30
0.0
 40
5.0
  1
先端部詳細
 72
     5
 11
210.82944309069
 21
153.8676307671
 31
0.0
100
AcDbText
  0
POLYLINE
  5
26A
330
18
100
AcDbEntity
  8
LEVEL001
  6
Continuous
 62
     1
370
    15
100
AcDb2dPolyline
 66
     1
 10
0.0
 20
0.0
 30
0.0
  0
VERTEX
  5
26B
330
26A
100
AcDbEntity
  8
LEVEL001
  6
Continuous
 62
     1
100
AcDbVertex
100
AcDb2dVertex
 10
189.03151314076
 20
98.809457218151
 30
0.0
  0
VERTEX
  5
26C
330
26A
100
AcDbEntity
  8
LEVEL001
  6
Continuous
 62
     1
100
AcDbVertex
100
AcDb2dVertex
 10
175.60793340631
 20
108.49348326628
 30
0.0
  0
VERTEX
  5
26D
330
26A
100
AcDbEntity
  8
LEVEL001
  6
Continuous
 62
     1
100
AcDbVertex
100
AcDb2dVertex
 10
147.60793340631
 20
108.49348326628
 30
0.0
  0
SEQEND
  5
26E
330
26A
100
AcDbEntity
  8
LEVEL001
  6
Continuous
 62
     1
  0
LINE
  5
26F
330
18
100
AcDbEntity
  8
LEVEL001
  6
Continuous
 62
     1
370
    15
100
AcDbLine
 10
189.03151314076
 20
98.809457218151
 30
0.0
 11
187.06884927422
 21
101.21655536208
 31
0.0
  0
LINE
  5
270
330
18
100
AcDbEntity
  8
LEVEL001
  6
Continuous
 62
     1
370
    15
100
AcDbLine
 10
189.03151314076
 20
98.809457218151
 30
0.0
 11
186.12824730128
 21
99.91273342693
 31
0.0
  0
MTEXT
  5
271
102
{ACAD_REACTORS
330
270
102
}
330
18
100
AcDbEntity
  8
LEVEL001
 62
     3
370
    20
100
AcDbMText
 10
147.60793340631
 20
110.20776898056
 30
0.0
 40
4.0
 41
0.0
 71
     7
 72
     1
  1
\A1;２－Ｍ６ナベビス
 73
     1
 44
1.0
  0
LINE
  5
272
330
18
100
AcDbEntity
  8
LEVEL001
  6
Continuous
 62
     1
370
    15
100
AcDbLine
 10
181.33224124034
 20
85.00945721815
 30
0.0
 11
181.33224124034
 21
110.66485592539
 31
0.0
  0
LINE
  5
273
330
18
100
AcDbEntity
  8
LEVEL001
  6
Continuous
 62
     1
370
    15
100
AcDbLine
 10
181.33224124034
 20
108.66485592539
 30
0.0
 11
185.83224124034
 21
108.66485592539
 31
0.0
  0
LINE
  5
274
330
18
100
AcDbEntity
  8
LEVEL001
  6
Continuous
 62
     1
370
    15
100
AcDbLine
 10
190.33224124034
 20
108.66485592539
 30
0.0
 11
185.83224124034
 21
108.66485592539
 31
0.0
  0
LINE
  5
275
330
18
100
AcDbEntity
  8
LEVEL001
  6
Continuous
 62
     1
370
    15
100
AcDbLine
 10
181.33224124034
 20
108.66485592539
 30
0.0
 11
184.33224124034
 21
107.8610083481
 31
0.0
  0
LINE
  5
276
330
18
100
AcDbEntity
  8
LEVEL001
  6
Continuous
 62
     1
370
    15
100
AcDbLine
 10
181.33224124034
 20
108.66485592539
 30
0.0
 11
184.33224124034
 21
109.46870350268
 31
0.0
  0
LINE
  5
277
330
18
100
AcDbEntity
  8
LEVEL001
  6
Continuous
 62
     1
370
    15
100
AcDbLine
 10
190.33224124034
 20
108.66485592539
 30
0.0
 11
187.33224124034
 21
109.46870350268
 31
0.0
  0
LINE
  5
278
330
18
100
AcDbEntity
  8
LEVEL001
  6
Continuous
 62
     1
370
    15
100
AcDbLine
 10
190.33224124034
 20
108.66485592539
 30
0.0
 11
187.33224124034
 21
107.8610083481
 31
0.0
  0
MTEXT
  5
279
330
18
100
AcDbEntity
  8
LEVEL001
 62
     3
370
    20
100
AcDbMText
 10
185.83224124034
 20
110.37914163967
 30
0.0
 40
4.0
 41
0.0
 71
     8
 72
     1
  1
\A1;(45)
 73
     1
 44
1.0
  0
LINE
  5
27A
330
18
100
AcDbEntity
  8
LEVEL001
  6
Continuous
 62
     1
370
    15
100
AcDbLine
 10
187.05994199811
 20
220.61007048674
 30
0.0
 11
178.99241253944
 21
226.0034599689
 31
0.0
  0
CIRCLE
  5
27B
330
18
100
AcDbEntity
  8
LEVEL001
  6
Continuous
 62
     1
370
    15
100
AcDbCircle
 10
175.66707468206
 20
228.22654974087
 30
0.0
 40
4.0
  0
LINE
  5
27C
330
18
100
AcDbEntity
  8
LEVEL001
  6
Continuous
 62
     1
370
    15
100
AcDbLine
 10
187.05994199811
 20
220.61007048674
 30
0.0
 11
185.01269493689
 21
222.94565401081
 31
0.0
  0
LINE
  5
27D
330
18
100
AcDbEntity
  8
LEVEL001
  6
Continuous
 62
     1
370
    15
100
AcDbLine
 10
187.05994199811
 20
220.61007048674
 30
0.0
 11
184.11918227324
 21
221.60912162064
 31
0.0
  0
MTEXT
  5
27E
330
18
100
AcDbEntity
  8
LEVEL001
 62
     3
370
    20
100
AcDbMText
 10
172.83864755731
 20
225.39812261613
 30
0.0
 40
5.6568542494924
 41
0.0
 71
     7
 72
     1
  1
\A1;３
 73
     1
 44
1.0
  0
LINE
  5
27F
330
18
100
AcDbEntity
  8
LEVEL001
  6
Continuous
 62
     1
370
    15
100
AcDbLine
 10
189.83224124035
 20
203.57115062537
 30
0.0
 11
164.22416548295
 21
203.57115062537
 31
0.0
  0
LINE
  5
280
330
18
100
AcDbEntity
  8
LEVEL001
  6
Continuous
 62
     1
370
    15
100
AcDbLine
 10
197.33224124035
 20
232.97115062537
 30
0.0
 11
164.22416548295
 21
232.97115062537
 31
0.0
  0
LINE
  5
281
330
18
100
AcDbEntity
  8
LEVEL001
  6
Continuous
 62
     1
370
    15
100
AcDbLine
 10
166.22416548295
 20
203.57115062537
 30
0.0
 11
166.22416548295
 21
218.27115062537
 31
0.0
  0
LINE
  5
282
330
18
100
AcDbEntity
  8
LEVEL001
  6
Continuous
 62
     1
370
    15
100
AcDbLine
 10
166.22416548295
 20
232.97115062537
 30
0.0
 11
166.22416548295
 21
218.27115062537
 31
0.0
  0
LINE
  5
283
330
18
100
AcDbEntity
  8
LEVEL001
  6
Continuous
 62
     1
370
    15
100
AcDbLine
 10
166.22416548295
 20
203.57115062537
 30
0.0
 11
167.02801306025
 21
206.57115062537
 31
0.0
  0
LINE
  5
284
330
18
100
AcDbEntity
  8
LEVEL001
  6
Continuous
 62
     1
370
    15
100
AcDbLine
 10
166.22416548295
 20
203.57115062537
 30
0.0
 11
165.42031790566
 21
206.57115062537
 31
0.0
  0
LINE
  5
285
330
18
100
AcDbEntity
  8
LEVEL001
  6
Continuous
 62
     1
370
    15
100
AcDbLine
 10
166.22416548295
 20
232.97115062537
 30
0.0
 11
165.42031790566
 21
229.97115062537
 31
0.0
  0
LINE
  5
286
330
18
100
AcDbEntity
  8
LEVEL001
  6
Continuous
 62
     1
370
    15
100
AcDbLine
 10
166.22416548295
 20
232.97115062537
 30
0.0
 11
167.02801306025
 21
229.97115062537
 31
0.0
  0
MTEXT
  5
287
330
18
100
AcDbEntity
  8
LEVEL001
 62
     3
370
    20
100
AcDbMText
 10
164.50987976867
 20
218.27115062537
 30
0.0
 40
4.0
 41
0.0
 71
     8
 72
     1
  1
\A1;(147)
 11
0.0
 21
1.0
 31
0.0
 73
     1
 44
1.0
  0
LINE
  5
288
330
18
100
AcDbEntity
  8
LEVEL001
  6
Continuous
 62
     1
370
    15
100
AcDbLine
 10
182.83224124035
 20
217.17115062537
 30
0.0
 11
182.83224124035
 21
246.4095780625
 31
0.0
  0
LINE
  5
289
330
18
100
AcDbEntity
  8
LEVEL001
  6
Continuous
 62
     1
370
    15
100
AcDbLine
 10
215.83224124035
 20
217.17115062537
 30
0.0
 11
215.83224124035
 21
246.4095780625
 31
0.0
  0
LINE
  5
28A
330
18
100
AcDbEntity
  8
LEVEL001
  6
Continuous
 62
     1
370
    15
100
AcDbLine
 10
182.83224124035
 20
244.4095780625
 30
0.0
 11
199.33224124035
 21
244.4095780625
 31
0.0
  0
LINE
  5
28B
330
18
100
AcDbEntity
  8
LEVEL001
  6
Continuous
 62
     1
370
    15
100
AcDbLine
 10
215.83224124035
 20
244.4095780625
 30
0.0
 11
199.33224124035
 21
244.4095780625
 31
0.0
  0
LINE
  5
28C
330
18
100
AcDbEntity
  8
LEVEL001
  6
Continuous
 62
     1
370
    15
100
AcDbLine
 10
182.83224124035
 20
244.4095780625
 30
0.0
 11
185.83224124035
 21
243.60573048521
 31
0.0
  0
LINE
  5
28D
330
18
100
AcDbEntity
  8
LEVEL001
  6
Continuous
 62
     1
370
    15
100
AcDbLine
 10
182.83224124035
 20
244.4095780625
 30
0.0
 11
185.83224124035
 21
245.21342563979
 31
0.0
  0
LINE
  5
28E
330
18
100
AcDbEntity
  8
LEVEL001
  6
Continuous
 62
     1
370
    15
100
AcDbLine
 10
215.83224124035
 20
244.4095780625
 30
0.0
 11
212.83224124035
 21
245.21342563979
 31
0.0
  0
LINE
  5
28F
330
18
100
AcDbEntity
  8
LEVEL001
  6
Continuous
 62
     1
370
    15
100
AcDbLine
 10
215.83224124035
 20
244.4095780625
 30
0.0
 11
212.83224124035
 21
243.60573048521
 31
0.0
  0
MTEXT
  5
290
330
18
100
AcDbEntity
  8
LEVEL001
 62
     3
370
    20
100
AcDbMText
 10
199.33224124035
 20
246.12386377679
 30
0.0
 40
4.0
 41
0.0
 71
     8
 72
     1
  1
\A1;%%c165
 73
     1
 44
1.0
  0
LINE
  5
291
330
18
100
AcDbEntity
  8
LEVEL001
  6
Continuous
 62
     1
370
    15
100
AcDbLine
 10
187.93224124034
 20
101.50945721815
 30
0.0
 11
166.40104364676
 21
101.50945721815
 31
0.0
  0
LINE
  5
292
330
18
100
AcDbEntity
  8
LEVEL001
  6
Continuous
 62
     1
370
    15
100
AcDbLine
 10
187.93224124034
 20
64.509457218153
 30
0.0
 11
166.40104364676
 21
64.509457218153
 31
0.0
  0
LINE
  5
293
330
18
100
AcDbEntity
  8
LEVEL001
  6
Continuous
 62
     1
370
    15
100
AcDbLine
 10
168.40104364676
 20
101.50945721815
 30
0.0
 11
168.40104364676
 21
83.009457218151
 31
0.0
  0
LINE
  5
294
330
18
100
AcDbEntity
  8
LEVEL001
  6
Continuous
 62
     1
370
    15
100
AcDbLine
 10
168.40104364676
 20
64.509457218153
 30
0.0
 11
168.40104364676
 21
83.009457218151
 31
0.0
  0
LINE
  5
295
330
18
100
AcDbEntity
  8
LEVEL001
  6
Continuous
 62
     1
370
    15
100
AcDbLine
 10
168.40104364676
 20
101.50945721815
 30
0.0
 11
167.59719606947
 21
98.509457218148
 31
0.0
  0
LINE
  5
296
330
18
100
AcDbEntity
  8
LEVEL001
  6
Continuous
 62
     1
370
    15
100
AcDbLine
 10
168.40104364676
 20
101.50945721815
 30
0.0
 11
169.20489122405
 21
98.509457218148
 31
0.0
  0
LINE
  5
297
330
18
100
AcDbEntity
  8
LEVEL001
  6
Continuous
 62
     1
370
    15
100
AcDbLine
 10
168.40104364676
 20
64.509457218153
 30
0.0
 11
169.20489122405
 21
67.509457218153
 31
0.0
  0
LINE
  5
298
330
18
100
AcDbEntity
  8
LEVEL001
  6
Continuous
 62
     1
370
    15
100
AcDbLine
 10
168.40104364676
 20
64.509457218153
 30
0.0
 11
167.59719606947
 21
67.509457218153
 31
0.0
  0
MTEXT
  5
299
330
18
100
AcDbEntity
  8
LEVEL001
 62
     3
370
    20
100
AcDbMText
 10
166.68675793248
 20
83.009457218151
 30
0.0
 40
4.0
 41
0.0
 71
     8
 72
     1
  1
\A1;(185)
 11
0.0
 21
1.0
 31
0.0
 73
     1
 44
1.0
  0
POLYLINE
  5
29A
330
18
100
AcDbEntity
  8
LEVEL001
  6
Continuous
 62
     1
370
    15
100
AcDb2dPolyline
 66
     1
 10
0.0
 20
0.0
 30
0.0
  0
VERTEX
  5
29B
330
29A
100
AcDbEntity
  8
LEVEL001
  6
Continuous
 62
     1
100
AcDbVertex
100
AcDb2dVertex
 10
184.58224124035
 20
197.3983280625
 30
0.0
  0
VERTEX
  5
29C
330
29A
100
AcDbEntity
  8
LEVEL001
  6
Continuous
 62
     1
100
AcDbVertex
100
AcDb2dVertex
 10
177.74051505946
 20
186.48788049185
 30
0.0
  0
VERTEX
  5
29D
330
29A
100
AcDbEntity
  8
LEVEL001
  6
Continuous
 62
     1
100
AcDbVertex
100
AcDb2dVertex
 10
159.77002147506
 20
186.48788049185
 30
0.0
  0
SEQEND
  5
29E
330
29A
100
AcDbEntity
  8
LEVEL001
  6
Continuous
 62
     1
  0
LINE
  5
29F
330
18
100
AcDbEntity
  8
LEVEL001
  6
Continuous
 62
     1
370
    15
100
AcDbLine
 10
184.58224124035
 20
197.3983280625
 30
0.0
 11
182.30742026667
 21
195.2837688968
 31
0.0
  0
LINE
  5
2A0
330
18
100
AcDbEntity
  8
LEVEL001
  6
Continuous
 62
     1
370
    15
100
AcDbLine
 10
184.58224124035
 20
197.3983280625
 30
0.0
 11
183.66946807093
 21
194.42965562036
 31
0.0
  0
MTEXT
  5
2A1
102
{ACAD_REACTORS
330
2A0
102
}
330
18
100
AcDbEntity
  8
LEVEL001
 62
     3
370
    20
100
AcDbMText
 10
159.77002147506
 20
187.46583959551
 30
0.0
 40
4.0
 41
0.0
 71
     4
 72
     1
  1
\A1;%%c８ロープ\P　１１ｍ
 73
     1
 44
1.0
  0
LINE
  5
2A2
330
18
100
AcDbEntity
  8
LEVEL001
  6
Continuous
 62
     3
370
    20
100
AcDbLine
 10
106.60214809263
 20
268.81594829564
 30
0.0
 11
106.60214809263
 21
266.49889661686
 31
0.0
  0
LINE
  5
2A3
330
18
100
AcDbEntity
  8
LEVEL001
  6
Continuous
 62
     3
370
    20
100
AcDbLine
 10
106.86881475929
 20
268.76041813451
 30
0.0
 11
106.86881475929
 21
266.49889661686
 31
0.0
  0
LINE
  5
2A4
330
18
100
AcDbEntity
  8
LEVEL001
  6
Continuous
 62
     3
370
    20
100
AcDbLine
 10
105.75214809263
 20
269.42788419084
 30
0.0
 11
105.75214809263
 21
266.49889661686
 31
0.0
  0
LINE
  5
2A5
330
18
100
AcDbEntity
  8
LEVEL001
  6
Continuous
 62
     3
370
    20
100
AcDbLine
 10
106.01881475929
 20
269.13442942688
 30
0.0
 11
106.01881475929
 21
266.49889661686
 31
0.0
  0
ARC
  5
2A6
330
18
100
AcDbEntity
  8
LEVEL001
  6
Continuous
 62
     3
370
    20
100
AcDbCircle
 10
105.81881475929
 20
266.6143666707
 30
0.0
 40
0.13333333333333
100
AcDbArc
 50
239.99999999999
 51
300.00000000002
  0
ARC
  5
2A7
330
18
100
AcDbEntity
  8
LEVEL001
  6
Continuous
 62
     3
370
    20
100
AcDbCircle
 10
105.95214809263
 20
266.6143666707
 30
0.0
 40
0.13333333333335
100
AcDbArc
 50
240.0
 51
299.99999999999
  0
ARC
  5
2A8
330
18
100
AcDbEntity
  8
LEVEL001
  6
Continuous
 62
     3
370
    20
100
AcDbCircle
 10
105.95214809263
 20
266.38342656303
 30
0.0
 40
0.13333333333335
100
AcDbArc
 50
60.00000000001499
 51
119.99999999999
  0
ARC
  5
2A9
330
18
100
AcDbEntity
  8
LEVEL001
  6
Continuous
 62
     3
370
    20
100
AcDbCircle
 10
106.66881475929
 20
266.6143666707
 30
0.0
 40
0.13333333333333
100
AcDbArc
 50
240.0
 51
300.0
  0
ARC
  5
2AA
330
18
100
AcDbEntity
  8
LEVEL001
  6
Continuous
 62
     3
370
    20
100
AcDbCircle
 10
106.80214809263
 20
266.6143666707
 30
0.0
 40
0.13333333333335
100
AcDbArc
 50
240.0
 51
300.0
  0
ARC
  5
2AB
330
18
100
AcDbEntity
  8
LEVEL001
  6
Continuous
 62
     3
370
    20
100
AcDbCircle
 10
106.80214809263
 20
266.38342656303
 30
0.0
 40
0.13333333333335
100
AcDbArc
 50
60.000000000004
 51
120.0
  0
ARC
  5
2AC
330
18
100
AcDbEntity
  8
LEVEL001
  6
Continuous
 62
     3
370
    20
100
AcDbCircle
 10
109.36048142596
 20
270.34889661686
 30
0.0
 40
1.6
100
AcDbArc
 50
270.0
 51
0.0
  0
LINE
  5
2AD
330
18
100
AcDbEntity
  8
LEVEL001
  6
Continuous
 62
     3
370
    20
100
AcDbLine
 10
110.96048142596
 20
270.34889661686
 30
0.0
 11
110.90714809263
 21
270.34889661686
 31
0.0
  0
LINE
  5
2AE
330
18
100
AcDbEntity
  8
LEVEL001
  6
Continuous
 62
     3
370
    20
100
AcDbLine
 10
110.90714809263
 20
270.34889661686
 30
0.0
 11
108.21048142596
 21
270.34889661686
 31
0.0
  0
LINE
  5
2AF
330
18
100
AcDbEntity
  8
LEVEL001
  6
Continuous
 62
     3
370
    20
100
AcDbLine
 10
109.36048142596
 20
268.74889661686
 30
0.0
 11
108.21048142596
 21
268.74889661686
 31
0.0
  0
ARC
  5
2B0
330
18
100
AcDbEntity
  8
LEVEL001
  6
Continuous
 62
     3
370
    20
100
AcDbCircle
 10
107.06048142596
 20
270.34889661686
 30
0.0
 40
1.6
100
AcDbArc
 50
180.0
 51
270.0
  0
LINE
  5
2B1
330
18
100
AcDbEntity
  8
LEVEL001
  6
Continuous
 62
     3
370
    20
100
AcDbLine
 10
105.46048142596
 20
270.34889661686
 30
0.0
 11
105.51381475929
 21
270.34889661686
 31
0.0
  0
LINE
  5
2B2
330
18
100
AcDbEntity
  8
LEVEL001
  6
Continuous
 62
     3
370
    20
100
AcDbLine
 10
105.51381475929
 20
270.34889661686
 30
0.0
 11
108.21048142596
 21
270.34889661686
 31
0.0
  0
LINE
  5
2B3
330
18
100
AcDbEntity
  8
LEVEL001
  6
Continuous
 62
     3
370
    20
100
AcDbLine
 10
107.06048142596
 20
268.74889661686
 30
0.0
 11
108.21048142596
 21
268.74889661686
 31
0.0
  0
CIRCLE
  5
2B4
330
18
100
AcDbEntity
  8
LEVEL001
  6
Continuous
 62
     3
370
    20
100
AcDbCircle
 10
108.21048142596
 20
270.59927139524
 30
0.0
 40
0.083333333333333
  0
LINE
  5
2B5
330
18
100
AcDbEntity
  8
LEVEL001
  6
Continuous
 62
     3
370
    20
100
AcDbLine
 10
105.46048142596
 20
270.34889661686
 30
0.0
 11
110.96048142596
 21
270.34889661686
 31
0.0
  0
LINE
  5
2B6
330
18
100
AcDbEntity
  8
LEVEL001
  6
Continuous
 62
     3
370
    20
100
AcDbLine
 10
110.96048142596
 20
270.34889661686
 30
0.0
 11
110.94900144821
 21
270.97712308633
 31
0.0
  0
ARC
  5
2B7
330
18
100
AcDbEntity
  8
LEVEL001
  6
Continuous
 62
     3
370
    20
100
AcDbCircle
 10
110.28244606219
 20
270.96494270017
 30
0.0
 40
0.66666666666667
100
AcDbArc
 50
1.0468853298475
 51
11.796205268405
  0
LINE
  5
2B8
330
18
100
AcDbEntity
  8
LEVEL001
  6
Continuous
 62
     3
370
    20
100
AcDbLine
 10
105.46048142596
 20
270.34889661686
 30
0.0
 11
105.4719614037
 21
270.97712308632
 31
0.0
  0
ARC
  5
2B9
330
18
100
AcDbEntity
  8
LEVEL001
  6
Continuous
 62
     3
370
    20
100
AcDbCircle
 10
106.13851678973
 20
270.96494270016
 30
0.0
 40
0.66666666666667
100
AcDbArc
 50
168.20379473184
 51
178.9531146703
  0
ARC
  5
2BA
330
18
100
AcDbEntity
  8
LEVEL001
  6
Continuous
 62
     3
370
    20
100
AcDbCircle
 10
108.21048142596
 20
270.5322299502
 30
0.0
 40
2.7833333333333
100
AcDbArc
 50
11.796205268404
 51
168.20379473184
  0
LWPOLYLINE
  5
2BB
330
18
100
AcDbEntity
  8
LEVEL001
  6
Continuous
 62
     3
370
    20
100
AcDbPolyline
 90
        4
 70
     1
 43
0.0
 10
106.97714809263
 20
268.74889661686
 10
106.97714809263
 20
268.41556328353
 10
109.44381475929
 20
268.41556328353
 10
109.44381475929
 20
268.74889661686
  0
POINT
  5
2BC
330
18
100
AcDbEntity
  8
LEVEL001
 62
     3
100
AcDbPoint
 10
108.21048142596
 20
268.41556328353
 30
0.0
  0
LINE
  5
2BD
330
18
100
AcDbEntity
  8
LEVEL001
  6
Continuous
 62
     3
370
    20
100
AcDbLine
 10
105.93548142596
 20
106.91556328353
 30
0.0
 11
106.15214809263
 21
106.91556328353
 31
0.0
  0
LINE
  5
2BE
330
18
100
AcDbEntity
  8
LEVEL001
  6
Continuous
 62
     3
370
    20
100
AcDbLine
 10
105.88097188549
 20
107.82405562472
 30
0.0
 11
105.93548142596
 21
106.91556328353
 31
0.0
  0
LINE
  5
2BF
330
18
100
AcDbEntity
  8
LEVEL001
  6
Continuous
 62
     3
370
    20
100
AcDbLine
 10
106.52714809263
 20
107.81556328353
 30
0.0
 11
106.52714809263
 21
106.74889661686
 31
0.0
  0
LINE
  5
2C0
330
18
100
AcDbEntity
  8
LEVEL001
  6
Continuous
 62
     3
370
    20
100
AcDbLine
 10
106.52714809263
 20
105.6822299502
 30
0.0
 11
106.52714809263
 21
106.74889661686
 31
0.0
  0
LINE
  5
2C1
330
18
100
AcDbEntity
  8
LEVEL001
  6
Continuous
 62
     3
370
    20
100
AcDbLine
 10
106.71048142596
 20
108.74889661686
 30
0.0
 11
106.52714809263
 21
107.81556328353
 31
0.0
  0
LINE
  5
2C2
330
18
100
AcDbEntity
  8
LEVEL001
  6
Continuous
 62
     3
370
    20
100
AcDbLine
 10
106.71048142596
 20
104.74889661686
 30
0.0
 11
106.52714809263
 21
105.6822299502
 31
0.0
  0
ARC
  5
2C3
330
18
100
AcDbEntity
  8
LEVEL001
  6
Continuous
 62
     3
370
    20
100
AcDbCircle
 10
106.38222614095
 20
108.48977975364
 30
0.0
 40
0.83333333333333
100
AcDbArc
 50
180.0
 51
233.02223081455
  0
LINE
  5
2C4
330
18
100
AcDbEntity
  8
LEVEL001
  6
HIDDEN
 62
     1
370
    15
100
AcDbLine
 10
106.62702674269
 20
104.01056328353
 30
0.0
 11
106.71048142596
 21
104.01056328353
 31
0.0
  0
LINE
  5
2C5
330
18
100
AcDbEntity
  8
LEVEL001
  6
HIDDEN
 62
     1
370
    15
100
AcDbLine
 10
106.62702674269
 20
104.01056328353
 30
0.0
 11
106.62702674269
 21
103.9322299502
 31
0.0
  0
LINE
  5
2C6
330
18
100
AcDbEntity
  8
LEVEL001
  6
HIDDEN
 62
     1
370
    15
100
AcDbLine
 10
106.62702674269
 20
104.29889661687
 30
0.0
 11
106.62702674269
 21
104.22056328353
 31
0.0
  0
LINE
  5
2C7
330
18
100
AcDbEntity
  8
LEVEL001
  6
HIDDEN
 62
     1
370
    15
100
AcDbLine
 10
106.62702674269
 20
104.22056328353
 30
0.0
 11
106.71048142596
 21
104.22056328353
 31
0.0
  0
LINE
  5
2C8
330
18
100
AcDbEntity
  8
LEVEL001
  6
Continuous
 62
     3
370
    20
100
AcDbLine
 10
105.54420461317
 20
109.07954108856
 30
0.0
 11
105.54889280762
 21
108.48977975364
 31
0.0
  0
LINE
  5
2C9
330
18
100
AcDbEntity
  8
LEVEL001
  6
DOT
 62
     1
370
    15
100
AcDbLine
 10
106.59369340936
 20
103.94056328353
 30
0.0
 11
106.62702674269
 21
103.94056328353
 31
0.0
  0
LINE
  5
2CA
330
18
100
AcDbEntity
  8
LEVEL001
  6
DOT
 62
     1
370
    15
100
AcDbLine
 10
106.62702674269
 20
104.29056328353
 30
0.0
 11
106.62702674269
 21
103.94056328353
 31
0.0
  0
LINE
  5
2CB
330
18
100
AcDbEntity
  8
LEVEL001
  6
DOT
 62
     1
370
    15
100
AcDbLine
 10
106.59369340936
 20
104.29056328353
 30
0.0
 11
106.62702674269
 21
104.29056328353
 31
0.0
  0
LINE
  5
2CC
330
18
100
AcDbEntity
  8
LEVEL001
  6
Continuous
 62
     3
370
    20
100
AcDbLine
 10
106.49369340936
 20
104.04056328353
 30
0.0
 11
106.49369340936
 21
104.19056328353
 31
0.0
  0
LINE
  5
2CD
330
18
100
AcDbEntity
  8
LEVEL001
  6
Continuous
 62
     3
370
    20
100
AcDbLine
 10
106.71048142596
 20
103.7322299502
 30
0.0
 11
106.71048142596
 21
104.74889661686
 31
0.0
  0
ARC
  5
2CE
330
18
100
AcDbEntity
  8
LEVEL001
  6
Continuous
 62
     3
370
    20
100
AcDbCircle
 10
107.52906239983
 20
104.65426947126
 30
0.0
 40
2.0
100
AcDbArc
 50
142.92793628941
 51
187.12650048794
  0
LINE
  5
2CF
330
18
100
AcDbEntity
  8
LEVEL001
  6
HIDDEN
 62
     1
370
    15
100
AcDbLine
 10
106.62702674269
 20
109.4872299502
 30
0.0
 11
106.71048142596
 21
109.4872299502
 31
0.0
  0
LINE
  5
2D0
330
18
100
AcDbEntity
  8
LEVEL001
  6
HIDDEN
 62
     1
370
    15
100
AcDbLine
 10
106.62702674269
 20
109.4872299502
 30
0.0
 11
106.62702674269
 21
109.56556328353
 31
0.0
  0
LINE
  5
2D1
330
18
100
AcDbEntity
  8
LEVEL001
  6
HIDDEN
 62
     1
370
    15
100
AcDbLine
 10
106.62702674269
 20
109.19889661686
 30
0.0
 11
106.62702674269
 21
109.2772299502
 31
0.0
  0
LINE
  5
2D2
330
18
100
AcDbEntity
  8
LEVEL001
  6
HIDDEN
 62
     1
370
    15
100
AcDbLine
 10
106.62702674269
 20
109.2772299502
 30
0.0
 11
106.71048142596
 21
109.2772299502
 31
0.0
  0
LINE
  5
2D3
330
18
100
AcDbEntity
  8
LEVEL001
  6
DOT
 62
     1
370
    15
100
AcDbLine
 10
106.59369340936
 20
109.5572299502
 30
0.0
 11
106.62702674269
 21
109.5572299502
 31
0.0
  0
LINE
  5
2D4
330
18
100
AcDbEntity
  8
LEVEL001
  6
DOT
 62
     1
370
    15
100
AcDbLine
 10
106.62702674269
 20
109.2072299502
 30
0.0
 11
106.62702674269
 21
109.5572299502
 31
0.0
  0
LINE
  5
2D5
330
18
100
AcDbEntity
  8
LEVEL001
  6
DOT
 62
     1
370
    15
100
AcDbLine
 10
106.59369340936
 20
109.2072299502
 30
0.0
 11
106.62702674269
 21
109.2072299502
 31
0.0
  0
LINE
  5
2D6
330
18
100
AcDbEntity
  8
LEVEL001
  6
Continuous
 62
     3
370
    20
100
AcDbLine
 10
106.49369340936
 20
109.4572299502
 30
0.0
 11
106.49369340936
 21
109.3072299502
 31
0.0
  0
LINE
  5
2D7
330
18
100
AcDbEntity
  8
LEVEL001
  6
Continuous
 62
     3
370
    20
100
AcDbLine
 10
106.71048142596
 20
109.76556328353
 30
0.0
 11
106.71048142596
 21
108.74889661686
 31
0.0
  0
LWPOLYLINE
  5
2D8
330
18
100
AcDbEntity
  8
LEVEL001
  6
Continuous
 62
     3
370
    20
100
AcDbPolyline
 90
       65
 70
     0
 43
0.0
 10
105.40249526355
 20
108.92061763195
 10
105.39914417839
 20
108.84471240867
 10
105.39580452275
 20
108.7688700715
 10
105.39248772617
 20
108.69315350656
 10
105.38920521818
 20
108.61762559996
 10
105.38596842829
 20
108.54234923781
 10
105.38278878605
 20
108.46738730624
 10
105.37967772098
 20
108.39280269134
 10
105.3766466626
 20
108.31865827925
 10
105.37370704045
 20
108.24501695606
 10
105.37087028405
 20
108.17194160791
 10
105.36814782293
 20
108.09949512089
 10
105.36555108662
 20
108.02774038112
 10
105.36309150466
 20
107.95674027472
 10
105.36078050655
 20
107.8865576878
 10
105.35862952184
 20
107.81725550648
 10
105.35664998006
 20
107.74889661686
 10
105.35485005045
 20
107.68152294304
 10
105.35322486118
 20
107.61509256091
 10
105.35176628015
 20
107.54954258439
 10
105.35046617524
 20
107.48481012734
 10
105.34931641434
 20
107.42083230367
 10
105.34830886534
 20
107.35754622724
 10
105.34743539614
 20
107.29488901196
 10
105.34668787462
 20
107.2327977717
 10
105.34605816868
 20
107.17120962035
 10
105.3455381462
 20
107.1100616718
 10
105.34511967508
 20
107.04929103993
 10
105.3447946232
 20
106.98883483864
 10
105.34455485846
 20
106.92863018179
 10
105.34439224875
 20
106.86861418329
 10
105.34429866195
 20
106.80872395702
 10
105.34426596596
 20
106.74889661686
 10
105.34428873761
 20
106.68906927671
 10
105.34437238949
 20
106.62917905043
 10
105.3445250431
 20
106.56916305193
 10
105.34475481998
 20
106.50895839509
 10
105.34506984165
 20
106.4485021938
 10
105.34547822963
 20
106.38773156193
 10
105.34598810544
 20
106.32658361338
 10
105.3466075906
 20
106.26499546203
 10
105.34734480664
 20
106.20290422177
 10
105.34820787509
 20
106.14024700649
 10
105.34920491745
 20
106.07696093006
 10
105.35034405526
 20
106.01298310638
 10
105.35163341004
 20
105.94825064934
 10
105.3530811033
 20
105.88270067281
 10
105.35469525658
 20
105.81627029069
 10
105.35648399139
 20
105.74889661686
 10
105.35845217251
 20
105.68053772725
 10
105.36059163775
 20
105.61123554593
 10
105.36289096817
 20
105.54105295901
 10
105.36533874481
 20
105.47005285261
 10
105.36792354875
 20
105.39829811285
 10
105.37063396104
 20
105.32585162583
 10
105.37345856274
 20
105.25277627767
 10
105.37638593491
 20
105.17913495449
 10
105.37940465861
 20
105.10499054239
 10
105.38250331489
 20
105.0304059275
 10
105.38567048482
 20
104.95544399593
 10
105.38889474946
 20
104.88016763378
 10
105.39216468986
 20
104.80463972718
 10
105.39546888708
 20
104.72892316224
 10
105.39879592219
 20
104.65308082507
 10
105.40213437623
 20
104.57717560178
  0
LWPOLYLINE
  5
2D9
330
18
100
AcDbEntity
  8
LEVEL001
  6
Continuous
 62
     3
370
    20
100
AcDbPolyline
 90
       65
 70
     0
 43
0.0
 10
105.53537739021
 20
108.92061763195
 10
105.53203263487
 20
108.84459082879
 10
105.52869916013
 20
108.76862977244
 10
105.52538824656
 20
108.69280020973
 10
105.52211117477
 20
108.61716788747
 10
105.51887922534
 20
108.54179855248
 10
105.51570367887
 20
108.46675795157
 10
105.51259581594
 20
108.39211183156
 10
105.50956691716
 20
108.31792593927
 10
105.50662826309
 20
108.24426602152
 10
105.50379113435
 20
108.17119782512
 10
105.50106681152
 20
108.09878709688
 10
105.49846657519
 20
108.02709958364
 10
105.49600170596
 20
107.9562010322
 10
105.49368348441
 20
107.88615718938
 10
105.49152319113
 20
107.81703380199
 10
105.48953210672
 20
107.74889661686
 10
105.48771840043
 20
107.68178755807
 10
105.48607779618
 20
107.61565325871
 10
105.48460290653
 20
107.55041652917
 10
105.48328634407
 20
107.48600017981
 10
105.48212072137
 20
107.42232702101
 10
105.48109865101
 20
107.35931986313
 10
105.48021274556
 20
107.29690151655
 10
105.4794556176
 20
107.23499479163
 10
105.4788198797
 20
107.17352249876
 10
105.47829814445
 20
107.11240744829
 10
105.47788302441
 20
107.05157245061
 10
105.47756713216
 20
106.99094031607
 10
105.47734308029
 20
106.93043385506
 10
105.47720348135
 20
106.86997587794
 10
105.47714094794
 20
106.80948919509
 10
105.47714809263
 20
106.74889661686
 10
105.47721964117
 20
106.68813239646
 10
105.47735877211
 20
106.62717655831
 10
105.47757077715
 20
106.56602056965
 10
105.47786094802
 20
106.50465589772
 10
105.47823457644
 20
106.44307400978
 10
105.47869695411
 20
106.38126637306
 10
105.47925337276
 20
106.31922445481
 10
105.47990912411
 20
106.25693972227
 10
105.48066949987
 20
106.19440364269
 10
105.48153979176
 20
106.13160768331
 10
105.4825252915
 20
106.06854331137
 10
105.48363129081
 20
106.00520199412
 10
105.4848630814
 20
105.9415751988
 10
105.48622595499
 20
105.87765439265
 10
105.4877252033
 20
105.81343104293
 10
105.48936611805
 20
105.74889661686
 10
105.49115157819
 20
105.6840473331
 10
105.4930748116
 20
105.6188984158
 10
105.49512663339
 20
105.55346984055
 10
105.49729785868
 20
105.48778158292
 10
105.49957930259
 20
105.42185361846
 10
105.50196178024
 20
105.35570592275
 10
105.50443610672
 20
105.28935847136
 10
105.50699309718
 20
105.22283123985
 10
105.5096235667
 20
105.1561442038
 10
105.51231833042
 20
105.08931733876
 10
105.51506820345
 20
105.02237062032
 10
105.51786400091
 20
104.95532402404
 10
105.5206965379
 20
104.88819752548
 10
105.52355662954
 20
104.82101110022
 10
105.52643509096
 20
104.75378472382
 10
105.52932273726
 20
104.68653837185
  0
POINT
  5
2DA
330
18
100
AcDbEntity
  8
LEVEL001
 62
     2
100
AcDbPoint
 10
106.71048142596
 20
106.74889661686
 30
0.0
  0
ARC
  5
2DB
330
18
100
AcDbEntity
  8
LEVEL001
  6
Continuous
 62
     3
370
    20
100
AcDbCircle
 10
105.47798915317
 20
104.41050893511
 30
0.0
 40
0.066666666666667
100
AcDbArc
 50
189.81802439693
 51
356.24988759819
  0
ARC
  5
2DC
330
18
100
AcDbEntity
  8
LEVEL001
  6
Continuous
 62
     3
370
    20
100
AcDbCircle
 10
105.47798915318
 20
109.08728429862
 30
0.0
 40
0.066666666666667
100
AcDbArc
 50
353.3301469402401
 51
170.18197560336
  0
LWPOLYLINE
  5
2DD
330
18
100
AcDbEntity
  8
LEVEL001
  6
Continuous
 62
     3
370
    20
100
AcDbPolyline
 90
      161
 70
     0
 43
0.0
 10
105.41229886622
 20
109.09865226431
 10
105.40916083041
 20
109.07929876176
 10
105.40601665298
 20
109.05988628921
 10
105.40286019232
 20
109.04035587663
 10
105.39968530683
 20
109.02064855402
 10
105.39648585488
 20
109.00070535138
 10
105.39325569487
 20
108.98046729868
 10
105.38998868518
 20
108.95987542593
 10
105.38667868419
 20
108.9388707631
 10
105.38331955031
 20
108.9173943402
 10
105.37990514191
 20
108.89538718721
 10
105.37642931738
 20
108.87279033412
 10
105.3728859351
 20
108.84954481093
 10
105.36926885347
 20
108.82559164761
 10
105.36557193087
 20
108.80087187417
 10
105.3617890257
 20
108.77532652059
 10
105.35791399632
 20
108.74889661687
 10
105.35394411711
 20
108.72154548225
 10
105.34989032626
 20
108.69332559302
 10
105.34576697794
 20
108.66431171473
 10
105.34158842632
 20
108.63457861292
 10
105.33736902557
 20
108.60420105316
 10
105.33312312987
 20
108.57325380098
 10
105.32886509338
 20
108.54181162193
 10
105.32460927026
 20
108.50994928156
 10
105.3203700147
 20
108.47774154541
 10
105.31616168085
 20
108.44526317905
 10
105.3119986229
 20
108.41258894801
 10
105.307895195
 20
108.37979361784
 10
105.30386575133
 20
108.3469519541
 10
105.29992464606
 20
108.31413872232
 10
105.29608623335
 20
108.28142868806
 10
105.29236486738
 20
108.24889661686
 10
105.2887716629
 20
108.21660147875
 10
105.285304777
 20
108.18453906156
 10
105.28195912737
 20
108.15268935762
 10
105.27872963168
 20
108.12103235925
 10
105.27561120762
 20
108.08954805876
 10
105.27259877286
 20
108.05821644848
 10
105.26968724508
 20
108.02701752072
 10
105.26687154197
 20
107.9959312678
 10
105.2641465812
 20
107.96493768204
 10
105.26150728045
 20
107.93401675576
 10
105.2589485574
 20
107.90314848127
 10
105.25646532973
 20
107.87231285089
 10
105.25405251513
 20
107.84148985694
 10
105.25170503126
 20
107.81065949174
 10
105.24941779582
 20
107.77980174761
 10
105.24718572648
 20
107.74889661686
 10
105.24500489509
 20
107.71792830397
 10
105.24287599022
 20
107.68689786195
 10
105.24080085462
 20
107.65581055599
 10
105.23878133102
 20
107.62467165128
 10
105.23681926217
 20
107.59348641299
 10
105.23491649081
 20
107.56226010629
 10
105.23307485968
 20
107.53099799638
 10
105.23129621152
 20
107.49970534843
 10
105.22958238907
 20
107.46838742761
 10
105.22793523508
 20
107.43704949912
 10
105.22635659228
 20
107.40569682812
 10
105.22484830343
 20
107.37433467979
 10
105.22341221125
 20
107.34296831933
 10
105.2220501585
 20
107.3116030119
 10
105.2207639879
 20
107.28024402268
 10
105.21955554222
 20
107.24889661686
 10
105.21842622149
 20
107.21756500658
 10
105.21737565502
 20
107.18624919184
 10
105.21640302943
 20
107.1549481196
 10
105.21550753133
 20
107.12366073683
 10
105.21468834734
 20
107.09238599048
 10
105.21394466406
 20
107.06112282753
 10
105.21327566811
 20
107.02987019494
 10
105.21268054612
 20
106.99862703968
 10
105.21215848468
 20
106.9673923087
 10
105.21170867042
 20
106.93616494897
 10
105.21133028995
 20
106.90494390746
 10
105.21102252989
 20
106.87372813112
 10
105.21078457684
 20
106.84251656693
 10
105.21061561743
 20
106.81130816185
 10
105.21051483826
 20
106.78010186284
 10
105.21048142596
 20
106.74889661686
 10
105.21051483826
 20
106.71769137089
 10
105.21061561743
 20
106.68648507188
 10
105.21078457684
 20
106.6552766668
 10
105.21102252988
 20
106.62406510261
 10
105.21133028995
 20
106.59284932627
 10
105.21170867042
 20
106.56162828476
 10
105.21215848468
 20
106.53040092503
 10
105.21268054611
 20
106.49916619405
 10
105.21327566811
 20
106.46792303879
 10
105.21394466406
 20
106.4366704062
 10
105.21468834733
 20
106.40540724325
 10
105.21550753133
 20
106.3741324969
 10
105.21640302943
 20
106.34284511413
 10
105.21737565502
 20
106.31154404189
 10
105.21842622149
 20
106.28022822715
 10
105.21955554222
 20
106.24889661686
 10
105.2207639879
 20
106.21754921105
 10
105.22205015849
 20
106.18619022183
 10
105.22341221125
 20
106.1548249144
 10
105.22484830343
 20
106.12345855394
 10
105.22635659228
 20
106.09209640561
 10
105.22793523508
 20
106.06074373461
 10
105.22958238907
 20
106.02940580612
 10
105.23129621152
 20
105.9980878853
 10
105.23307485968
 20
105.96679523735
 10
105.23491649081
 20
105.93553312744
 10
105.23681926217
 20
105.90430682074
 10
105.23878133102
 20
105.87312158245
 10
105.24080085462
 20
105.84198267774
 10
105.24287599022
 20
105.81089537178
 10
105.24500489509
 20
105.77986492976
 10
105.24718572647
 20
105.74889661686
 10
105.24941779582
 20
105.71799148612
 10
105.25170503126
 20
105.68713374199
 10
105.25405251512
 20
105.65630337679
 10
105.25646532973
 20
105.62548038284
 10
105.25894855739
 20
105.59464475246
 10
105.26150728044
 20
105.56377647797
 10
105.26414658119
 20
105.53285555169
 10
105.26687154196
 20
105.50186196593
 10
105.26968724507
 20
105.47077571301
 10
105.27259877285
 20
105.43957678525
 10
105.27561120761
 20
105.40824517497
 10
105.27872963168
 20
105.37676087448
 10
105.28195912736
 20
105.34510387611
 10
105.285304777
 20
105.31325417217
 10
105.28877166289
 20
105.28119175498
 10
105.29236486738
 20
105.24889661686
 10
105.29608623335
 20
105.21636454567
 10
105.29992464606
 20
105.18365451141
 10
105.30386575133
 20
105.15084127963
 10
105.307895195
 20
105.11799961589
 10
105.3119986229
 20
105.08520428572
 10
105.31616168086
 20
105.05253005468
 10
105.32037001471
 20
105.02005168831
 10
105.32460927027
 20
104.98784395217
 10
105.32886509338
 20
104.9559816118
 10
105.33312312988
 20
104.92453943275
 10
105.33736902558
 20
104.89359218057
 10
105.34158842633
 20
104.86321462081
 10
105.34576697794
 20
104.833481519
 10
105.34989032626
 20
104.80446764071
 10
105.35394411711
 20
104.77624775149
 10
105.35791399632
 20
104.74889661686
 10
105.36178902569
 20
104.72246671314
 10
105.36557193087
 20
104.69692135956
 10
105.36926885347
 20
104.67220158612
 10
105.37288593509
 20
104.64824842281
 10
105.37642931736
 20
104.62500289962
 10
105.37990514189
 20
104.60240604653
 10
105.38331955029
 20
104.58039889354
 10
105.38667868418
 20
104.55892247064
 10
105.38998868516
 20
104.53791780781
 10
105.39325569485
 20
104.51732593506
 10
105.39648585486
 20
104.49708788236
 10
105.39968530681
 20
104.47714467972
 10
105.40286019231
 20
104.45743735711
 10
105.40601665297
 20
104.43790694453
 10
105.4091608304
 20
104.41849447197
 10
105.41229886622
 20
104.39914096942
  0
ARC
  5
2DE
330
18
100
AcDbEntity
  8
LEVEL001
  6
Continuous
 62
     3
370
    20
100
AcDbCircle
 10
106.0396902334
 20
105.77953166041
 30
0.0
 40
0.13333333333333
100
AcDbArc
 50
21.936801848515
 51
142.92793628938
  0
LINE
  5
2DF
330
18
100
AcDbEntity
  8
LEVEL001
  6
Continuous
 62
     3
370
    20
100
AcDbLine
 10
106.20346437179
 20
107.77083460299
 30
0.0
 11
106.15214809263
 21
106.91556328353
 31
0.0
  0
LINE
  5
2E0
330
18
100
AcDbEntity
  8
LEVEL001
  6
HIDDEN
 62
     1
370
    15
100
AcDbLine
 10
106.57229753264
 20
109.56556328353
 30
0.0
 11
106.62702674269
 21
109.56556328353
 31
0.0
  0
ARC
  5
2E1
330
18
100
AcDbEntity
  8
LEVEL001
  6
DOT
 62
     1
370
    15
100
AcDbCircle
 10
106.59369340936
 20
109.4572299502
 30
0.0
 40
0.1
100
AcDbArc
 50
89.99999999966998
 51
102.62388350068
  0
ARC
  5
2E2
330
18
100
AcDbEntity
  8
LEVEL001
  6
DOT
 62
     1
370
    15
100
AcDbCircle
 10
106.59369340936
 20
109.3072299502
 30
0.0
 40
0.1
100
AcDbArc
 50
242.30847316511
 51
269.99999999865
  0
LINE
  5
2E3
330
18
100
AcDbEntity
  8
LEVEL001
  6
HIDDEN
 62
     1
370
    15
100
AcDbLine
 10
106.54515047257
 20
109.19889661686
 30
0.0
 11
106.62702674269
 21
109.19889661686
 31
0.0
  0
ARC
  5
2E4
330
18
100
AcDbEntity
  8
LEVEL001
  6
Continuous
 62
     3
370
    20
100
AcDbCircle
 10
106.59369340936
 20
109.3072299502
 30
0.0
 40
0.1
100
AcDbArc
 50
180.0000000006
 51
242.3084731666
  0
ARC
  5
2E5
330
18
100
AcDbEntity
  8
LEVEL001
  6
Continuous
 62
     3
370
    20
100
AcDbCircle
 10
106.59369340936
 20
109.4572299502
 30
0.0
 40
0.1
100
AcDbArc
 50
102.62388350101
 51
180.0000000001
  0
LINE
  5
2E6
330
18
100
AcDbEntity
  8
LEVEL001
  6
HIDDEN
 62
     1
370
    15
100
AcDbLine
 10
106.54515047257
 20
104.29889661687
 30
0.0
 11
106.62702674269
 21
104.29889661687
 31
0.0
  0
ARC
  5
2E7
330
18
100
AcDbEntity
  8
LEVEL001
  6
DOT
 62
     1
370
    15
100
AcDbCircle
 10
106.59369340936
 20
104.19056328353
 30
0.0
 40
0.1
100
AcDbArc
 50
90.00000000133699
 51
117.69152683488
  0
ARC
  5
2E8
330
18
100
AcDbEntity
  8
LEVEL001
  6
DOT
 62
     1
370
    15
100
AcDbCircle
 10
106.59369340936
 20
104.04056328353
 30
0.0
 40
0.1
100
AcDbArc
 50
257.37611649937
 51
270.00000000042
  0
LINE
  5
2E9
330
18
100
AcDbEntity
  8
LEVEL001
  6
HIDDEN
 62
     1
370
    15
100
AcDbLine
 10
106.57229753264
 20
103.9322299502
 30
0.0
 11
106.62702674269
 21
103.9322299502
 31
0.0
  0
ARC
  5
2EA
330
18
100
AcDbEntity
  8
LEVEL001
  6
Continuous
 62
     3
370
    20
100
AcDbCircle
 10
106.59369340936
 20
104.04056328353
 30
0.0
 40
0.1
100
AcDbArc
 50
179.99999999991
 51
257.37611649899
  0
ARC
  5
2EB
330
18
100
AcDbEntity
  8
LEVEL001
  6
Continuous
 62
     3
370
    20
100
AcDbCircle
 10
106.59369340936
 20
104.19056328353
 30
0.0
 40
0.1
100
AcDbArc
 50
117.6915268334
 51
179.99999999942
  0
ARC
  5
2EC
330
18
100
AcDbEntity
  8
LEVEL001
  6
Continuous
 62
     3
370
    20
100
AcDbCircle
 10
100.8606098451
 20
109.80410371562
 30
0.0
 40
5.7166666666667
100
AcDbArc
 50
339.16524836755
 51
359.6181751394
  0
ARC
  5
2ED
330
18
100
AcDbEntity
  8
LEVEL001
  6
Continuous
 62
     3
370
    20
100
AcDbCircle
 10
100.8606098451
 20
103.69368951811
 30
0.0
 40
5.7166666666667
100
AcDbArc
 50
0.3818248606029799
 51
21.936801848487
  0
ARC
  5
2EE
330
18
100
AcDbEntity
  8
LEVEL001
  6
Continuous
 62
     3
370
    20
100
AcDbCircle
 10
106.64381475929
 20
103.7322299502
 30
0.0
 40
0.066666666666667
100
AcDbArc
 50
269.99999999995
 51
0.0
  0
ARC
  5
2EF
330
18
100
AcDbEntity
  8
LEVEL001
  6
Continuous
 62
     3
370
    20
100
AcDbCircle
 10
106.64381475929
 20
103.7322299502
 30
0.0
 40
0.066666666666667
100
AcDbArc
 50
180.38182486085
 51
270.0
  0
ARC
  5
2F0
330
18
100
AcDbEntity
  8
LEVEL001
  6
Continuous
 62
     3
370
    20
100
AcDbCircle
 10
106.64381475929
 20
109.76556328353
 30
0.0
 40
0.066666666666667
100
AcDbArc
 50
0.0000000003126612
 51
90.00000000005201
  0
ARC
  5
2F1
330
18
100
AcDbEntity
  8
LEVEL001
  6
Continuous
 62
     3
370
    20
100
AcDbCircle
 10
106.64381475929
 20
109.76556328353
 30
0.0
 40
0.066666666666667
100
AcDbArc
 50
90.0
 51
179.61817513909
  0
LWPOLYLINE
  5
2F2
330
18
100
AcDbEntity
  8
LEVEL001
  6
DOT
 62
     1
370
    15
100
AcDbPolyline
 90
        4
 70
     0
 43
0.0
 10
106.62702674269
 20
104.01556328353
 10
107.16036007603
 20
104.01556328353
 10
107.16036007603
 20
104.21556328353
 10
106.62702674269
 20
104.21556328353
  0
LINE
  5
2F3
330
18
100
AcDbEntity
  8
LEVEL001
  6
DASHDOT
 62
     1
370
    15
100
AcDbLine
 10
106.40768704303
 20
104.11556328353
 30
0.0
 11
107.24848911685
 21
104.11556328353
 31
0.0
  0
LWPOLYLINE
  5
2F4
330
18
100
AcDbEntity
  8
LEVEL001
  6
DOT
 62
     1
370
    15
100
AcDbPolyline
 90
        4
 70
     0
 43
0.0
 10
106.62702674269
 20
109.4822299502
 10
107.16036007603
 20
109.4822299502
 10
107.16036007603
 20
109.2822299502
 10
106.62702674269
 20
109.2822299502
  0
LINE
  5
2F5
330
18
100
AcDbEntity
  8
LEVEL001
  6
DASHDOT
 62
     1
370
    15
100
AcDbLine
 10
106.40768704303
 20
109.3822299502
 30
0.0
 11
107.24848911685
 21
109.3822299502
 31
0.0
  0
LINE
  5
2F6
330
18
100
AcDbEntity
  8
LEVEL001
  6
DASHDOT
 62
     1
370
    15
100
AcDbLine
 10
104.86374082682
 20
106.74889661686
 30
0.0
 11
110.02968537901
 21
106.74889661686
 31
0.0
  0
LINE
  5
2F7
330
18
100
AcDbEntity
  8
LEVEL001
  6
Continuous
 62
     1
370
    15
100
AcDbLine
 10
105.21048142596
 20
106.74889661687
 30
0.0
 11
97.339499197262
 21
116.01616542503
 31
0.0
  0
CIRCLE
  5
2F8
330
18
100
AcDbEntity
  8
LEVEL001
  6
Continuous
 62
     1
370
    15
100
AcDbCircle
 10
94.750089141095
 20
119.06492838089
 30
0.0
 40
4.0
  0
LINE
  5
2F9
330
18
100
AcDbEntity
  8
LEVEL001
  6
Continuous
 62
     1
370
    15
100
AcDbLine
 10
105.21048142596
 20
106.74889661687
 30
0.0
 11
103.88110906279
 21
109.55584158383
 31
0.0
  0
LINE
  5
2FA
330
18
100
AcDbEntity
  8
LEVEL001
  6
Continuous
 62
     1
370
    15
100
AcDbLine
 10
105.21048142596
 20
106.74889661687
 30
0.0
 11
102.65573870488
 21
108.51509608369
 31
0.0
  0
MTEXT
  5
2FB
330
18
100
AcDbEntity
  8
LEVEL001
 62
     3
370
    20
100
AcDbMText
 10
91.921662016348
 20
116.23650125615
 30
0.0
 40
5.6568542494924
 41
0.0
 71
     7
 72
     1
  1
\A1;４
 73
     1
 44
1.0
  0
LINE
  5
2FC
330
18
100
AcDbEntity
  8
LEVEL001
  6
Continuous
 62
     3
370
    20
100
AcDbLine
 10
99.877148092626
 20
65.528811937583
 30
0.0
 11
101.54381475929
 21
68.415563283532
 31
0.0
  0
LINE
  5
2FD
330
18
100
AcDbEntity
  8
LEVEL001
  6
Continuous
 62
     3
370
    20
100
AcDbLine
 10
99.31048142596
 20
68.415563283532
 30
0.0
 11
100.42714809263
 21
66.481439881746
 31
0.0
  0
LINE
  5
2FE
330
18
100
AcDbEntity
  8
LEVEL001
  6
Continuous
 62
     3
370
    20
100
AcDbLine
 10
100.41048142596
 20
68.415563283532
 30
0.0
 11
100.97714809263
 21
67.434067825909
 31
0.0
  0
LINE
  5
2FF
330
18
100
AcDbEntity
  8
LEVEL001
  6
Continuous
 62
     3
370
    20
100
AcDbLine
 10
96.543814759293
 20
65.528811937583
 30
0.0
 11
98.21048142596
 21
68.415563283532
 31
0.0
  0
LINE
  5
300
330
18
100
AcDbEntity
  8
LEVEL001
  6
Continuous
 62
     3
370
    20
100
AcDbLine
 10
98.21048142596
 20
68.415563283532
 30
0.0
 11
99.877148092626
 21
65.528811937583
 31
0.0
  0
LINE
  5
301
330
18
100
AcDbEntity
  8
LEVEL001
  6
Continuous
 62
     3
370
    20
100
AcDbLine
 10
97.629313042747
 20
65.528811937583
 30
0.0
 11
98.753230567687
 21
67.475494194296
 31
0.0
  0
LINE
  5
302
330
18
100
AcDbEntity
  8
LEVEL001
  6
Continuous
 62
     3
370
    20
100
AcDbLine
 10
98.729313042747
 20
65.528811937583
 30
0.0
 11
99.303230567687
 21
66.522866250133
 31
0.0
  0
LINE
  5
303
330
18
100
AcDbEntity
  8
LEVEL001
  6
Continuous
 62
     3
370
    20
100
AcDbLine
 10
95.956736177172
 20
68.415563283532
 30
0.0
 11
97.073402843838
 21
66.481439881746
 31
0.0
  0
LINE
  5
304
330
18
100
AcDbEntity
  8
LEVEL001
  6
Continuous
 62
     3
370
    20
100
AcDbLine
 10
97.056736177172
 20
68.415563283532
 30
0.0
 11
97.623402843838
 21
67.434067825909
 31
0.0
  0
LINE
  5
305
330
18
100
AcDbEntity
  8
LEVEL001
  6
Continuous
 62
     3
370
    20
100
AcDbLine
 10
93.21048142596
 20
65.528811937583
 30
0.0
 11
94.877148092626
 21
68.415563283532
 31
0.0
  0
LINE
  5
306
330
18
100
AcDbEntity
  8
LEVEL001
  6
Continuous
 62
     3
370
    20
100
AcDbLine
 10
92.643814759293
 20
68.415563283532
 30
0.0
 11
93.76048142596
 21
66.481439881746
 31
0.0
  0
LINE
  5
307
330
18
100
AcDbEntity
  8
LEVEL001
  6
Continuous
 62
     3
370
    20
100
AcDbLine
 10
94.877148092626
 20
68.415563283532
 30
0.0
 11
96.543814759293
 21
65.528811937583
 31
0.0
  0
LINE
  5
308
330
18
100
AcDbEntity
  8
LEVEL001
  6
Continuous
 62
     3
370
    20
100
AcDbLine
 10
94.295979709414
 20
65.528811937583
 30
0.0
 11
95.419897234353
 21
67.475494194296
 31
0.0
  0
LINE
  5
309
330
18
100
AcDbEntity
  8
LEVEL001
  6
Continuous
 62
     3
370
    20
100
AcDbLine
 10
95.395979709414
 20
65.528811937583
 30
0.0
 11
95.969897234353
 21
66.522866250133
 31
0.0
  0
LINE
  5
30A
330
18
100
AcDbEntity
  8
LEVEL001
  6
Continuous
 62
     3
370
    20
100
AcDbLine
 10
93.743814759293
 20
68.415563283532
 30
0.0
 11
94.31048142596
 21
67.434067825909
 31
0.0
  0
LINE
  5
30B
330
18
100
AcDbEntity
  8
LEVEL001
  6
Continuous
 62
     3
370
    20
100
AcDbLine
 10
111.94381475929
 20
68.415563283532
 30
0.0
 11
108.21048142596
 21
68.415563283532
 31
0.0
  0
TEXT
  5
30C
330
18
100
AcDbEntity
  8
LEVEL001
 62
     3
370
    20
100
AcDbText
 10
387.0
 20
111.0
 30
0.0
 40
3.0
  1
Ａ６０６３－Ｔ６
 41
0.66666666666667
 72
     5
 11
403.0
 21
111.0
 31
0.0
100
AcDbText
  0
TEXT
  5
30D
330
18
100
AcDbEntity
  8
LEVEL001
 62
     3
370
    20
100
AcDbText
 10
387.0
 20
106.0
 30
0.0
 40
3.0
  1
Ａ６０６３－Ｔ６
 41
0.66666666666667
 72
     5
 11
403.0
 21
106.0
 31
0.0
100
AcDbText
  0
LWPOLYLINE
  5
30E
330
18
100
AcDbEntity
  8
LEVEL001
  6
DOT
 62
     1
370
    15
100
AcDbPolyline
 90
        4
 70
     0
 43
0.0
 10
106.81048142596
 20
168.41556328355
 10
106.81048142596
 20
173.41556328355
 10
109.61048142596
 20
173.41556328355
 10
109.61048142596
 20
168.41556328351
  0
TEXT
  5
30F
330
18
100
AcDbEntity
  8
LEVEL001
 62
     3
370
    20
100
AcDbText
 10
347.0
 20
282.5
 30
0.0
 40
3.0
  1
製品仕様
 72
     5
 11
359.0
 21
282.5
 31
0.0
100
AcDbText
  0
TEXT
  5
310
330
18
100
AcDbEntity
  8
LEVEL001
 62
     3
370
    20
100
AcDbText
 10
347.0
 20
278.5
 30
0.0
 40
3.0
  1
・主要材料はアルミニウム合金製とします。
 72
     5
 11
407.0
 21
278.5
 31
0.0
100
AcDbText
  0
TEXT
  5
311
330
18
100
AcDbEntity
  8
LEVEL001
 62
     3
370
    20
100
AcDbText
 10
347.0
 20
274.5
 30
0.0
 40
3.0
  1
・表面処理はヘアライン研磨後
 72
     5
 11
389.0
 21
274.5
 31
0.0
100
AcDbText
  0
TEXT
  5
312
330
18
100
AcDbEntity
  8
LEVEL001
 62
     3
370
    20
100
AcDbText
 10
347.0
 20
270.5
 30
0.0
 40
3.0
  1
　アクリル樹脂クリア塗装を施します。
 72
     5
 11
401.0
 21
270.5
 31
0.0
100
AcDbText
  0
TEXT
  5
313
330
18
100
AcDbEntity
  8
LEVEL001
 62
     3
370
    20
100
AcDbText
 10
347.0
 20
266.5
 30
0.0
 40
3.0
  1
・材質指示のないボルト類はＳＵＳ３０４
 72
     5
 11
404.0
 21
266.5
 31
0.0
100
AcDbText
  0
TEXT
  5
314
330
18
100
AcDbEntity
  8
LEVEL001
 62
     3
370
    20
100
AcDbText
 10
347.0
 20
262.5
 30
0.0
 40
3.0
  1
　とします。
 72
     5
 11
365.0
 21
262.5
 31
0.0
100
AcDbText
  0
TEXT
  5
315
330
18
100
AcDbEntity
  8
LEVEL001
 62
     3
370
    20
100
AcDbText
 10
347.0
 20
258.5
 30
0.0
 40
3.0
  1
設計条件
 72
     5
 11
359.0
 21
258.5
 31
0.0
100
AcDbText
  0
TEXT
  5
316
330
18
100
AcDbEntity
  8
LEVEL001
 62
     3
370
    20
100
AcDbText
 10
347.0
 20
254.5
 30
0.0
 40
3.0
  1
・基準風速と地表面粗度の許容範囲の目安は
 72
     5
 11
407.0
 21
254.5
 31
0.0
100
AcDbText
  0
TEXT
  5
317
330
18
100
AcDbEntity
  8
LEVEL001
 62
     3
370
    20
100
AcDbText
 10
347.0
 20
250.5
 30
0.0
 40
3.0
  1
　下表を参照願います。（旗無し時）
 72
     5
 11
398.0
 21
250.5
 31
0.0
100
AcDbText
  0
TEXT
  5
318
330
18
100
AcDbEntity
  8
LEVEL001
 62
     3
370
    20
100
AcDbText
 10
347.0
 20
246.5
 30
0.0
 40
3.0
  1
・基礎寸法は地盤の許容応力度が１０ｔ／㎡
 72
     5
 11
407.0
 21
246.5
 31
0.0
100
AcDbText
  0
TEXT
  5
319
330
18
100
AcDbEntity
  8
LEVEL001
 62
     3
370
    20
100
AcDbText
 10
347.0
 20
242.5
 30
0.0
 40
3.0
  1
　（短期）時の参考寸法です。
 72
     5
 11
389.0
 21
242.5
 31
0.0
100
AcDbText
  0
TEXT
  5
31A
330
18
100
AcDbEntity
  8
LEVEL001
 62
     3
370
    20
100
AcDbText
 10
347.0
 20
238.5
 30
0.0
 40
3.0
  1
・地上～１５ｍ迄
 72
     5
 11
371.0
 21
238.5
 31
0.0
100
AcDbText
  0
TEXT
  5
31B
330
18
100
AcDbEntity
  8
LEVEL001
 62
     3
370
    20
100
AcDbText
 10
347.0
 20
234.5
 30
0.0
 40
3.0
  1
    　粗度区分　I 　  II　 III　　IV
 41
0.69230769230769
 72
     5
 11
401.0
 21
234.5
 31
0.0
100
AcDbText
  0
TEXT
  5
31C
330
18
100
AcDbEntity
  8
LEVEL001
 62
     3
370
    20
100
AcDbText
 10
347.0
 20
230.5
 30
0.0
 40
3.0
  1
　　　　３０    ○    ○    ○    ○
 41
0.69230769230769
 72
     5
 11
401.0
 21
230.5
 31
0.0
100
AcDbText
  0
TEXT
  5
31D
330
18
100
AcDbEntity
  8
LEVEL001
 62
     3
370
    20
100
AcDbText
 10
347.0
 20
226.5
 30
0.0
 40
3.0
  1
　　　　３２    －    ○    ○    ○
 41
0.69230769230769
 72
     5
 11
401.0
 21
226.5
 31
0.0
100
AcDbText
  0
TEXT
  5
31E
330
18
100
AcDbEntity
  8
LEVEL001
 62
     3
370
    20
100
AcDbText
 10
347.0
 20
222.5
 30
0.0
 40
3.0
  1
　　　　３４    －    ○    ○    ○
 41
0.69230769230769
 72
     5
 11
401.0
 21
222.5
 31
0.0
100
AcDbText
  0
TEXT
  5
31F
330
18
100
AcDbEntity
  8
LEVEL001
 62
     3
370
    20
100
AcDbText
 10
347.0
 20
218.5
 30
0.0
 40
3.0
  1
　　　　３６    －    －    ○    ○
 41
0.69230769230769
 72
     5
 11
401.0
 21
218.5
 31
0.0
100
AcDbText
  0
TEXT
  5
320
330
18
100
AcDbEntity
  8
LEVEL001
 62
     3
370
    20
100
AcDbText
 10
347.0
 20
214.5
 30
0.0
 40
3.0
  1
　　　　３８    －    －    ○    ○
 41
0.69230769230769
 72
     5
 11
401.0
 21
214.5
 31
0.0
100
AcDbText
  0
TEXT
  5
321
330
18
100
AcDbEntity
  8
LEVEL001
 62
     3
370
    20
100
AcDbText
 10
347.0
 20
210.5
 30
0.0
 40
3.0
  1
　　　　４０    －    －    ○    ○
 41
0.69230769230769
 72
     5
 11
401.0
 21
210.5
 31
0.0
100
AcDbText
  0
TEXT
  5
322
330
18
100
AcDbEntity
  8
LEVEL001
 62
     3
370
    20
100
AcDbText
 10
347.0
 20
206.5
 30
0.0
 40
3.0
  1
　　　　４２    －    －    －    ○
 41
0.69230769230769
 72
     5
 11
401.0
 21
206.5
 31
0.0
100
AcDbText
  0
TEXT
  5
323
330
18
100
AcDbEntity
  8
LEVEL001
 62
     3
370
    20
100
AcDbText
 10
347.0
 20
202.5
 30
0.0
 40
3.0
  1
　　　　４４    －    －    －    ○
 41
0.69230769230769
 72
     5
 11
401.0
 21
202.5
 31
0.0
100
AcDbText
  0
TEXT
  5
324
330
18
100
AcDbEntity
  8
LEVEL001
 62
     3
370
    20
100
AcDbText
 10
347.0
 20
198.5
 30
0.0
 40
3.0
  1
　　　　４６    －    －    －    ○
 41
0.69230769230769
 72
     5
 11
401.0
 21
198.5
 31
0.0
100
AcDbText
  0
TEXT
  5
325
330
18
100
AcDbEntity
  8
LEVEL001
 62
     3
370
    20
100
AcDbText
 10
347.0
 20
190.5
 30
0.0
 40
3.0
  1
注意事項
 72
     5
 11
359.0
 21
190.5
 31
0.0
100
AcDbText
  0
TEXT
  5
326
330
18
100
AcDbEntity
  8
LEVEL001
 62
     3
370
    20
100
AcDbText
 10
347.0
 20
186.5
 30
0.0
 40
3.0
  1
・本製品は旗を掲揚する為のポールです。
 72
     5
 11
404.0
 21
186.5
 31
0.0
100
AcDbText
  0
TEXT
  5
327
330
18
100
AcDbEntity
  8
LEVEL001
 62
     3
370
    20
100
AcDbText
 10
347.0
 20
182.5
 30
0.0
 40
3.0
  1
　旗以外のものは掲揚しないで下さい。
 72
     5
 11
401.0
 21
182.5
 31
0.0
100
AcDbText
  0
TEXT
  5
328
330
18
100
AcDbEntity
  8
LEVEL001
 62
     3
370
    20
100
AcDbText
 10
347.0
 20
178.5
 30
0.0
 40
3.0
  1
　ポール折損の要因となる場合があります。
 72
     5
 11
407.0
 21
178.5
 31
0.0
100
AcDbText
  0
TEXT
  5
329
330
18
100
AcDbEntity
  8
LEVEL001
 62
     3
370
    20
100
AcDbText
 10
347.0
 20
174.5
 30
0.0
 40
3.0
  1
・強風時（瞬間最大風速15m/s時）には旗を
 41
0.88636363636364
 72
     5
 11
405.5
 21
174.5
 31
0.0
100
AcDbText
  0
TEXT
  5
32A
330
18
100
AcDbEntity
  8
LEVEL001
 62
     3
370
    20
100
AcDbText
 10
347.0
 20
170.5
 30
0.0
 40
3.0
  1
　取外して下さい。ポール折損の要因となる
 72
     5
 11
407.0
 21
170.5
 31
0.0
100
AcDbText
  0
TEXT
  5
32B
330
18
100
AcDbEntity
  8
LEVEL001
 62
     3
370
    20
100
AcDbText
 10
347.0
 20
166.5
 30
0.0
 40
3.0
  1
　場合があります。
 72
     5
 11
374.0
 21
166.5
 31
0.0
100
AcDbText
  0
TEXT
  5
32C
330
18
100
AcDbEntity
  8
LEVEL001
 62
     3
370
    20
100
AcDbText
 10
347.0
 20
162.5
 30
0.0
 40
3.0
  1
・毎朝夕の昇降を推奨します。
 72
     5
 11
389.0
 21
162.5
 31
0.0
100
AcDbText
  0
TEXT
  5
32D
330
18
100
AcDbEntity
  8
LEVEL001
 62
     3
370
    20
100
AcDbText
 10
347.0
 20
158.5
 30
0.0
 40
3.0
  1
・製品改良のため、一部仕様変更を
 72
     5
 11
395.0
 21
158.5
 31
0.0
100
AcDbText
  0
TEXT
  5
32E
330
18
100
AcDbEntity
  8
LEVEL001
 62
     3
370
    20
100
AcDbText
 10
347.0
 20
154.5
 30
0.0
 40
3.0
  1
　する場合があります。
 72
     5
 11
380.0
 21
154.5
 31
0.0
100
AcDbText
  0
ENDSEC
  0
SECTION
  2
OBJECTS
  0
DICTIONARY
  5
C
330
0
100
AcDbDictionary
281
     1
  3
ACAD_DETAILVIEWSTYLE
350
3B1
  3
ACAD_GROUP
350
D
  3
ACAD_LAYOUT
350
330
  3
ACAD_MATERIAL
350
36E
  3
ACAD_MLEADERSTYLE
350
3AF
  3
ACAD_MLINESTYLE
350
1B
  3
ACAD_PLOTSTYLENAME
350
372
  3
ACAD_SCALELIST
350
333
  3
ACAD_SECTIONVIEWSTYLE
350
3B2
  3
ACAD_TABLESTYLE
350
3AE
  3
ACAD_VISUALSTYLE
350
355
  3
AcDbVariableDictionary
350
376
  0
DICTIONARY
  5
374
330
8
100
AcDbDictionary
280
     1
281
     1
  3
ACAD_XREC_ROUNDTRIP
360
375
  0
DICTIONARY
  5
3B1
102
{ACAD_REACTORS
330
C
102
}
330
C
100
AcDbDictionary
281
     1
  0
DICTIONARY
  5
D
102
{ACAD_REACTORS
330
C
102
}
330
C
100
AcDbDictionary
281
     1
  0
DICTIONARY
  5
330
102
{ACAD_REACTORS
330
C
102
}
330
C
100
AcDbDictionary
281
     1
  3
Layout1
350
332
  3
Model
350
331
  0
DICTIONARY
  5
36E
102
{ACAD_REACTORS
330
C
102
}
330
C
100
AcDbDictionary
281
     1
  3
ByBlock
350
370
  3
ByLayer
350
36F
  3
Global
350
371
  0
DICTIONARY
  5
3AF
102
{ACAD_REACTORS
330
C
102
}
330
C
100
AcDbDictionary
281
     1
  0
DICTIONARY
  5
1B
102
{ACAD_REACTORS
330
C
102
}
330
C
100
AcDbDictionary
281
     1
  0
ACDBDICTIONARYWDFLT
  5
372
102
{ACAD_REACTORS
330
C
102
}
330
C
100
AcDbDictionary
281
     1
  3
Normal
350
373
100
AcDbDictionaryWithDefault
340
373
  0
DICTIONARY
  5
333
102
{ACAD_REACTORS
330
C
102
}
330
C
100
AcDbDictionary
281
     1
  3
A0
350
334
  3
A1
350
335
  3
A2
350
336
  3
A3
350
337
  3
A4
350
338
  3
A5
350
339
  3
A6
350
33A
  3
A7
350
33B
  3
A8
350
33C
  3
A9
350
33D
  3
B0
350
33E
  3
B1
350
33F
  3
B2
350
340
  3
B3
350
341
  3
B4
350
342
  3
B5
350
343
  3
B6
350
344
  3
B7
350
345
  3
B8
350
346
  3
B9
350
347
  3
C0
350
348
  3
C1
350
349
  3
C2
350
34A
  3
C3
350
34B
  3
C4
350
34C
  3
C5
350
34D
  3
C6
350
34E
  3
C7
350
34F
  3
C8
350
350
  3
C9
350
351
  3
D0
350
352
  3
D1
350
353
  3
D2
350
354
  0
DICTIONARY
  5
3B2
102
{ACAD_REACTORS
330
C
102
}
330
C
100
AcDbDictionary
281
     1
  0
DICTIONARY
  5
3AE
102
{ACAD_REACTORS
330
C
102
}
330
C
100
AcDbDictionary
281
     1
  0
DICTIONARY
  5
355
102
{ACAD_REACTORS
330
C
102
}
330
C
100
AcDbDictionary
281
     1
  3
2dWireframe
350
35A
  3
Basic
350
35D
  3
Brighten
350
361
  3
ColorChange
350
365
  3
Conceptual
350
35F
  3
Dim
350
360
  3
EdgeColorOff
350
368
  3
Facepattern
350
364
  3
Flat
350
356
  3
FlatWithEdges
350
357
  3
Gouraud
350
358
  3
GouraudWithEdges
350
359
  3
Hidden
350
35C
  3
JitterOff
350
366
  3
Linepattern
350
363
  3
OverhangOff
350
367
  3
Realistic
350
35E
  3
Shaded
350
36D
  3
Shaded with edges
350
36C
  3
Shades of Gray
350
369
  3
Sketchy
350
36A
  3
Thicken
350
362
  3
Wireframe
350
35B
  3
X-Ray
350
36B
  0
DICTIONARY
  5
376
102
{ACAD_REACTORS
330
C
102
}
330
C
100
AcDbDictionary
281
     1
  3
CANNOSCALE
350
377
  3
MSLTSCALE
350
3B0
  0
XRECORD
  5
375
102
{ACAD_REACTORS
330
374
102
}
330
374
100
AcDbXrecord
280
     1
102
VTR_0.000_0.000_1.000_1.000_VISUALSTYLE
340
35A
102
VTR_0.000_0.000_1.000_1.000_GRIDDISPLAY
 70
     3
102
VTR_0.000_0.000_1.000_1.000_GRIDMAJOR
 70
     5
102
VTR_0.000_0.000_1.000_1.000_DEFAULTLIGHTING
280
     1
102
VTR_0.000_0.000_1.000_1.000_DEFAULTLIGHTINGTYPE
 70
     1
102
VTR_0.000_0.000_1.000_1.000_BRIGHTNESS
141
0.0
102
VTR_0.000_0.000_1.000_1.000_CONTRAST
142
0.0
  0
LAYOUT
  5
332
102
{ACAD_REACTORS
330
330
102
}
330
330
100
AcDbPlotSettings
  1

  2
none_device
  4

  6

 40
0.0
 41
0.0
 42
0.0
 43
0.0
 44
0.0
 45
0.0
 46
0.0
 47
0.0
 48
0.0
 49
0.0
140
0.0
141
0.0
142
1.0
143
1.0
 70
   688
 72
     0
 73
     0
 74
     5
  7

 75
    16
 76
     0
 77
     2
 78
   300
147
1.0
148
0.0
149
0.0
100
AcDbLayout
  1
Layout1
 70
     1
 71
     1
 10
0.0
 20
0.0
 11
12.0
 21
9.0
 12
0.0
 22
0.0
 32
0.0
 14
1.000000000000000E+20
 24
1.000000000000000E+20
 34
1.000000000000000E+20
 15
-1.000000000000000E+20
 25
-1.000000000000000E+20
 35
-1.000000000000000E+20
146
0.0
 13
0.0
 23
0.0
 33
0.0
 16
1.0
 26
0.0
 36
0.0
 17
0.0
 27
1.0
 37
0.0
 76
     0
330
15
  0
LAYOUT
  5
331
102
{ACAD_REACTORS
330
330
102
}
330
330
100
AcDbPlotSettings
  1

  2
none_device
  4
Letter_(8.50_x_11.00_Inches)
  6

 40
6.35
 41
6.35
 42
6.35000508
 43
6.35000508
 44
215.9
 45
279.4
 46
0.0
 47
0.0
 48
0.0
 49
0.0
140
0.0
141
0.0
142
1.0
143
77.63636557727389
 70
  1712
 72
     0
 73
     0
 74
     0
  7

 75
     0
 76
     0
 77
     2
 78
   300
147
0.0128805617388757
148
2553.854545454658
149
1562.1
100
AcDbLayout
  1
Model
 70
     1
 71
     0
 10
0.0
 20
0.0
 11
420.0
 21
297.0
 12
0.0
 22
0.0
 32
0.0
 14
0.0
 24
0.0
 34
0.0
 15
420.0
 25
297.0
 35
0.0
146
0.0
 13
0.0
 23
0.0
 33
0.0
 16
1.0
 26
0.0
 36
0.0
 17
0.0
 27
1.0
 37
0.0
 76
     0
330
18
331
32F
  0
MATERIAL
  5
370
102
{ACAD_REACTORS
330
36E
102
}
102
{ACAD_XDICTIONARY
360
3AA
102
}
330
36E
100
AcDbMaterial
  1
ByBlock
  0
MATERIAL
  5
36F
102
{ACAD_REACTORS
330
36E
102
}
102
{ACAD_XDICTIONARY
360
3A8
102
}
330
36E
100
AcDbMaterial
  1
ByLayer
  0
MATERIAL
  5
371
102
{ACAD_REACTORS
330
36E
102
}
102
{ACAD_XDICTIONARY
360
3AC
102
}
330
36E
100
AcDbMaterial
  1
Global
  0
ACDBPLACEHOLDER
  5
373
102
{ACAD_REACTORS
330
372
102
}
330
372
  0
SCALE
  5
334
102
{ACAD_REACTORS
330
333
102
}
330
333
100
AcDbScale
 70
     0
300
1:1
140
1.0
141
1.0
290
     1
  0
SCALE
  5
335
102
{ACAD_REACTORS
330
333
102
}
330
333
100
AcDbScale
 70
     0
300
1:2
140
1.0
141
2.0
290
     0
  0
SCALE
  5
336
102
{ACAD_REACTORS
330
333
102
}
330
333
100
AcDbScale
 70
     0
300
1:4
140
1.0
141
4.0
290
     0
  0
SCALE
  5
337
102
{ACAD_REACTORS
330
333
102
}
330
333
100
AcDbScale
 70
     0
300
1:5
140
1.0
141
5.0
290
     0
  0
SCALE
  5
338
102
{ACAD_REACTORS
330
333
102
}
330
333
100
AcDbScale
 70
     0
300
1:8
140
1.0
141
8.0
290
     0
  0
SCALE
  5
339
102
{ACAD_REACTORS
330
333
102
}
330
333
100
AcDbScale
 70
     0
300
1:10
140
1.0
141
10.0
290
     0
  0
SCALE
  5
33A
102
{ACAD_REACTORS
330
333
102
}
330
333
100
AcDbScale
 70
     0
300
1:16
140
1.0
141
16.0
290
     0
  0
SCALE
  5
33B
102
{ACAD_REACTORS
330
333
102
}
330
333
100
AcDbScale
 70
     0
300
1:20
140
1.0
141
20.0
290
     0
  0
SCALE
  5
33C
102
{ACAD_REACTORS
330
333
102
}
330
333
100
AcDbScale
 70
     0
300
1:30
140
1.0
141
30.0
290
     0
  0
SCALE
  5
33D
102
{ACAD_REACTORS
330
333
102
}
330
333
100
AcDbScale
 70
     0
300
1:40
140
1.0
141
40.0
290
     0
  0
SCALE
  5
33E
102
{ACAD_REACTORS
330
333
102
}
330
333
100
AcDbScale
 70
     0
300
1:50
140
1.0
141
50.0
290
     0
  0
SCALE
  5
33F
102
{ACAD_REACTORS
330
333
102
}
330
333
100
AcDbScale
 70
     0
300
1:100
140
1.0
141
100.0
290
     0
  0
SCALE
  5
340
102
{ACAD_REACTORS
330
333
102
}
330
333
100
AcDbScale
 70
     0
300
2:1
140
2.0
141
1.0
290
     0
  0
SCALE
  5
341
102
{ACAD_REACTORS
330
333
102
}
330
333
100
AcDbScale
 70
     0
300
4:1
140
4.0
141
1.0
290
     0
  0
SCALE
  5
342
102
{ACAD_REACTORS
330
333
102
}
330
333
100
AcDbScale
 70
     0
300
8:1
140
8.0
141
1.0
290
     0
  0
SCALE
  5
343
102
{ACAD_REACTORS
330
333
102
}
330
333
100
AcDbScale
 70
     0
300
10:1
140
10.0
141
1.0
290
     0
  0
SCALE
  5
344
102
{ACAD_REACTORS
330
333
102
}
330
333
100
AcDbScale
 70
     0
300
100:1
140
100.0
141
1.0
290
     0
  0
SCALE
  5
345
102
{ACAD_REACTORS
330
333
102
}
330
333
100
AcDbScale
 70
     0
300
1/128" = 1'-0"
140
0.0078125
141
12.0
290
     0
  0
SCALE
  5
346
102
{ACAD_REACTORS
330
333
102
}
330
333
100
AcDbScale
 70
     0
300
1/64" = 1'-0"
140
0.015625
141
12.0
290
     0
  0
SCALE
  5
347
102
{ACAD_REACTORS
330
333
102
}
330
333
100
AcDbScale
 70
     0
300
1/32" = 1'-0"
140
0.03125
141
12.0
290
     0
  0
SCALE
  5
348
102
{ACAD_REACTORS
330
333
102
}
330
333
100
AcDbScale
 70
     0
300
1/16" = 1'-0"
140
0.0625
141
12.0
290
     0
  0
SCALE
  5
349
102
{ACAD_REACTORS
330
333
102
}
330
333
100
AcDbScale
 70
     0
300
3/32" = 1'-0"
140
0.09375
141
12.0
290
     0
  0
SCALE
  5
34A
102
{ACAD_REACTORS
330
333
102
}
330
333
100
AcDbScale
 70
     0
300
1/8" = 1'-0"
140
0.125
141
12.0
290
     0
  0
SCALE
  5
34B
102
{ACAD_REACTORS
330
333
102
}
330
333
100
AcDbScale
 70
     0
300
3/16" = 1'-0"
140
0.1875
141
12.0
290
     0
  0
SCALE
  5
34C
102
{ACAD_REACTORS
330
333
102
}
330
333
100
AcDbScale
 70
     0
300
1/4" = 1'-0"
140
0.25
141
12.0
290
     0
  0
SCALE
  5
34D
102
{ACAD_REACTORS
330
333
102
}
330
333
100
AcDbScale
 70
     0
300
3/8" = 1'-0"
140
0.375
141
12.0
290
     0
  0
SCALE
  5
34E
102
{ACAD_REACTORS
330
333
102
}
330
333
100
AcDbScale
 70
     0
300
1/2" = 1'-0"
140
0.5
141
12.0
290
     0
  0
SCALE
  5
34F
102
{ACAD_REACTORS
330
333
102
}
330
333
100
AcDbScale
 70
     0
300
3/4" = 1'-0"
140
0.75
141
12.0
290
     0
  0
SCALE
  5
350
102
{ACAD_REACTORS
330
333
102
}
330
333
100
AcDbScale
 70
     0
300
1" = 1'-0"
140
1.0
141
12.0
290
     0
  0
SCALE
  5
351
102
{ACAD_REACTORS
330
333
102
}
330
333
100
AcDbScale
 70
     0
300
1-1/2" = 1'-0"
140
1.5
141
12.0
290
     0
  0
SCALE
  5
352
102
{ACAD_REACTORS
330
333
102
}
330
333
100
AcDbScale
 70
     0
300
3" = 1'-0"
140
3.0
141
12.0
290
     0
  0
SCALE
  5
353
102
{ACAD_REACTORS
330
333
102
}
330
333
100
AcDbScale
 70
     0
300
6" = 1'-0"
140
6.0
141
12.0
290
     0
  0
SCALE
  5
354
102
{ACAD_REACTORS
330
333
102
}
330
333
100
AcDbScale
 70
     0
300
1'-0" = 1'-0"
140
12.0
141
12.0
290
     0
  0
VISUALSTYLE
  5
35A
102
{ACAD_REACTORS
330
355
102
}
102
{ACAD_XDICTIONARY
360
380
102
}
330
355
100
AcDbVisualStyle
  2
2dWireframe
 70
     4
 71
     0
 72
     2
 73
     0
 90
        0
 40
0.6
 41
30.0
 62
     5
 63
     7
421
 16777215
 74
     1
 91
        4
 64
     7
 65
   257
 75
     1
175
     1
 42
1.0
 92
        0
 66
   257
 43
1.0
 76
     1
 77
     6
 78
     2
 67
     7
 79
     5
170
     0
171
     0
290
     0
174
     0
 93
        1
 44
0.0
173
     0
291
     0
 45
0.0
1001
ACAD
1000
AcDbSavedByObjectVersion
1070
     0
  0
VISUALSTYLE
  5
35D
102
{ACAD_REACTORS
330
355
102
}
102
{ACAD_XDICTIONARY
360
386
102
}
330
355
100
AcDbVisualStyle
  2
Basic
 70
     7
 71
     1
 72
     0
 73
     1
 90
        0
 40
0.6
 41
30.0
 62
     5
 63
     7
421
 16777215
 74
     0
 91
        4
 64
     7
 65
   257
 75
     1
175
     1
 42
1.0
 92
        8
 66
     7
 43
1.0
 76
     1
 77
     6
 78
     2
 67
     7
 79
     5
170
     0
171
     0
290
     0
174
     0
 93
        1
 44
0.0
173
     0
291
     1
 45
0.0
1001
ACAD
1000
AcDbSavedByObjectVersion
1070
     0
  0
VISUALSTYLE
  5
361
102
{ACAD_REACTORS
330
355
102
}
102
{ACAD_XDICTIONARY
360
38E
102
}
330
355
100
AcDbVisualStyle
  2
Brighten
 70
    12
 71
     2
 72
     2
 73
     0
 90
        0
 40
0.6
 41
30.0
 62
     5
 63
     7
421
 16777215
 74
     1
 91
        4
 64
     7
 65
   257
 75
     1
175
     1
 42
1.0
 92
        8
 66
     7
 43
1.0
 76
     1
 77
     6
 78
     2
 67
     7
 79
     5
170
     0
171
     0
290
     0
174
     0
 93
        1
 44
50.0
173
     0
291
     1
 45
0.0
1001
ACAD
1000
AcDbSavedByObjectVersion
1070
     0
  0
VISUALSTYLE
  5
365
102
{ACAD_REACTORS
330
355
102
}
102
{ACAD_XDICTIONARY
360
396
102
}
330
355
100
AcDbVisualStyle
  2
ColorChange
 70
    16
 71
     2
 72
     2
 73
     3
 90
        0
 40
0.6
 41
30.0
 62
     5
 63
     8
421
  8421504
 74
     1
 91
        4
 64
     7
 65
   257
 75
     1
175
     1
 42
1.0
 92
        8
 66
     8
424
  8421504
 43
1.0
 76
     1
 77
     6
 78
     2
 67
     7
 79
     5
170
     0
171
     0
290
     0
174
     0
 93
        1
 44
0.0
173
     0
291
     1
 45
0.0
1001
ACAD
1000
AcDbSavedByObjectVersion
1070
     0
  0
VISUALSTYLE
  5
35F
102
{ACAD_REACTORS
330
355
102
}
102
{ACAD_XDICTIONARY
360
38A
102
}
330
355
100
AcDbVisualStyle
  2
Conceptual
 70
     9
 71
     3
 72
     2
 73
     0
 90
        0
 40
0.6
 41
30.0
 62
     5
 63
     7
421
 16777215
 74
     2
 91
        2
 64
     7
 65
   257
 75
     1
175
     1
 42
179.0
 92
        8
 66
     7
 43
1.0
 76
     1
 77
     6
 78
     2
 67
     7
 79
     3
170
     0
171
     0
290
     0
174
     0
 93
        1
 44
0.0
173
     0
291
     0
 45
0.0
1001
ACAD
1000
AcDbSavedByObjectVersion
1070
     0
  0
VISUALSTYLE
  5
360
102
{ACAD_REACTORS
330
355
102
}
102
{ACAD_XDICTIONARY
360
38C
102
}
330
355
100
AcDbVisualStyle
  2
Dim
 70
    11
 71
     2
 72
     2
 73
     0
 90
        0
 40
0.6
 41
30.0
 62
     5
 63
     7
421
 16777215
 74
     1
 91
        4
 64
     7
 65
   257
 75
     1
175
     1
 42
1.0
 92
        8
 66
     7
 43
1.0
 76
     1
 77
     6
 78
     2
 67
     7
 79
     5
170
     0
171
     0
290
     0
174
     0
 93
        1
 44
-50.0
173
     0
291
     1
 45
0.0
1001
ACAD
1000
AcDbSavedByObjectVersion
1070
     0
  0
VISUALSTYLE
  5
368
102
{ACAD_REACTORS
330
355
102
}
102
{ACAD_XDICTIONARY
360
39C
102
}
330
355
100
AcDbVisualStyle
  2
EdgeColorOff
 70
    22
 71
     2
 72
     2
 73
     0
 90
        0
 40
0.6
 41
30.0
 62
     5
 63
     7
421
 16777215
 74
     1
 91
        4
 64
     7
 65
   257
 75
     1
175
     1
 42
1.0
 92
        8
 66
     7
 43
1.0
 76
     1
 77
     6
 78
     2
 67
     7
 79
     5
170
     0
171
     0
290
     0
174
     0
 93
        1
 44
0.0
173
     0
291
     1
 45
0.0
1001
ACAD
1000
AcDbSavedByObjectVersion
1070
     0
  0
VISUALSTYLE
  5
364
102
{ACAD_REACTORS
330
355
102
}
102
{ACAD_XDICTIONARY
360
394
102
}
330
355
100
AcDbVisualStyle
  2
Facepattern
 70
    15
 71
     2
 72
     2
 73
     0
 90
        0
 40
0.6
 41
30.0
 62
     5
 63
     7
421
 16777215
 74
     1
 91
        4
 64
     7
 65
   257
 75
     1
175
     1
 42
1.0
 92
        8
 66
     7
 43
1.0
 76
     1
 77
     6
 78
     2
 67
     7
 79
     5
170
     0
171
     0
290
     0
174
     0
 93
        1
 44
0.0
173
     0
291
     1
 45
0.0
1001
ACAD
1000
AcDbSavedByObjectVersion
1070
     0
  0
VISUALSTYLE
  5
356
102
{ACAD_REACTORS
330
355
102
}
102
{ACAD_XDICTIONARY
360
378
102
}
330
355
100
AcDbVisualStyle
  2
Flat
 70
     0
 71
     2
 72
     1
 73
     1
 90
        2
 40
0.6
 41
30.0
 62
     5
 63
     7
421
 16777215
 74
     0
 91
        0
 64
     7
 65
   257
 75
     1
175
     1
 42
1.0
 92
        8
 66
     7
 43
1.0
 76
     1
 77
     6
 78
     2
 67
     7
 79
     5
170
     0
171
     0
290
     0
174
     0
 93
       13
 44
0.0
173
     0
291
     1
 45
0.0
1001
ACAD
1000
AcDbSavedByObjectVersion
1070
     0
  0
VISUALSTYLE
  5
357
102
{ACAD_REACTORS
330
355
102
}
102
{ACAD_XDICTIONARY
360
37A
102
}
330
355
100
AcDbVisualStyle
  2
FlatWithEdges
 70
     1
 71
     2
 72
     1
 73
     1
 90
        2
 40
0.6
 41
30.0
 62
     5
 63
     7
421
 16777215
 74
     1
 91
        0
 64
     7
 65
   257
 75
     1
175
     1
 42
1.0
 92
        0
 66
   257
 43
1.0
 76
     1
 77
     6
 78
     2
 67
     7
 79
     5
170
     0
171
     0
290
     0
174
     0
 93
       13
 44
0.0
173
     0
291
     1
 45
0.0
1001
ACAD
1000
AcDbSavedByObjectVersion
1070
     0
  0
VISUALSTYLE
  5
358
102
{ACAD_REACTORS
330
355
102
}
102
{ACAD_XDICTIONARY
360
37C
102
}
330
355
100
AcDbVisualStyle
  2
Gouraud
 70
     2
 71
     2
 72
     2
 73
     1
 90
        2
 40
0.6
 41
30.0
 62
     5
 63
     7
421
 16777215
 74
     0
 91
        0
 64
     7
 65
   257
 75
     1
175
     1
 42
1.0
 92
        0
 66
     7
 43
1.0
 76
     1
 77
     6
 78
     2
 67
     7
 79
     5
170
     0
171
     0
290
     0
174
     0
 93
       13
 44
0.0
173
     0
291
     1
 45
0.0
1001
ACAD
1000
AcDbSavedByObjectVersion
1070
     0
  0
VISUALSTYLE
  5
359
102
{ACAD_REACTORS
330
355
102
}
102
{ACAD_XDICTIONARY
360
37E
102
}
330
355
100
AcDbVisualStyle
  2
GouraudWithEdges
 70
     3
 71
     2
 72
     2
 73
     1
 90
        2
 40
0.6
 41
30.0
 62
     5
 63
     7
421
 16777215
 74
     1
 91
        0
 64
     7
 65
   257
 75
     1
175
     1
 42
1.0
 92
        0
 66
   257
 43
1.0
 76
     1
 77
     6
 78
     2
 67
     7
 79
     5
170
     0
171
     0
290
     0
174
     0
 93
       13
 44
0.0
173
     0
291
     1
 45
0.0
1001
ACAD
1000
AcDbSavedByObjectVersion
1070
     0
  0
VISUALSTYLE
  5
35C
102
{ACAD_REACTORS
330
355
102
}
102
{ACAD_XDICTIONARY
360
384
102
}
330
355
100
AcDbVisualStyle
  2
Hidden
 70
     6
 71
     1
 72
     2
 73
     2
 90
        0
 40
0.6
 41
30.0
 62
     5
 63
     7
421
 16777215
 74
     2
 91
        2
 64
     7
 65
   257
 75
     2
175
     1
 42
40.0
 92
        0
 66
   257
 43
1.0
 76
     1
 77
     6
 78
     2
 67
     7
 79
     3
170
     0
171
     0
290
     0
174
     0
 93
        1
 44
0.0
173
     0
291
     0
 45
0.0
1001
ACAD
1000
AcDbSavedByObjectVersion
1070
     0
  0
VISUALSTYLE
  5
366
102
{ACAD_REACTORS
330
355
102
}
102
{ACAD_XDICTIONARY
360
398
102
}
330
355
100
AcDbVisualStyle
  2
JitterOff
 70
    20
 71
     2
 72
     2
 73
     0
 90
        0
 40
0.6
 41
30.0
 62
     5
 63
     7
421
 16777215
 74
     1
 91
        4
 64
     7
 65
   257
 75
     1
175
     1
 42
1.0
 92
       10
 66
     7
 43
1.0
 76
     1
 77
     6
 78
     2
 67
     7
 79
     5
170
     0
171
     0
290
     0
174
     0
 93
        1
 44
0.0
173
     0
291
     1
 45
0.0
1001
ACAD
1000
AcDbSavedByObjectVersion
1070
     0
  0
VISUALSTYLE
  5
363
102
{ACAD_REACTORS
330
355
102
}
102
{ACAD_XDICTIONARY
360
392
102
}
330
355
100
AcDbVisualStyle
  2
Linepattern
 70
    14
 71
     2
 72
     2
 73
     0
 90
        0
 40
0.6
 41
30.0
 62
     5
 63
     7
421
 16777215
 74
     1
 91
        4
 64
     7
 65
   257
 75
     7
175
     7
 42
1.0
 92
        8
 66
     7
 43
1.0
 76
     1
 77
     6
 78
     2
 67
     7
 79
     5
170
     0
171
     0
290
     0
174
     0
 93
        1
 44
0.0
173
     0
291
     1
 45
0.0
1001
ACAD
1000
AcDbSavedByObjectVersion
1070
     0
  0
VISUALSTYLE
  5
367
102
{ACAD_REACTORS
330
355
102
}
102
{ACAD_XDICTIONARY
360
39A
102
}
330
355
100
AcDbVisualStyle
  2
OverhangOff
 70
    21
 71
     2
 72
     2
 73
     0
 90
        0
 40
0.6
 41
30.0
 62
     5
 63
     7
421
 16777215
 74
     1
 91
        4
 64
     7
 65
   257
 75
     1
175
     1
 42
1.0
 92
        9
 66
     7
 43
1.0
 76
     1
 77
     6
 78
     2
 67
     7
 79
     5
170
     0
171
     0
290
     0
174
     0
 93
        1
 44
0.0
173
     0
291
     1
 45
0.0
1001
ACAD
1000
AcDbSavedByObjectVersion
1070
     0
  0
VISUALSTYLE
  5
35E
102
{ACAD_REACTORS
330
355
102
}
102
{ACAD_XDICTIONARY
360
388
102
}
330
355
100
AcDbVisualStyle
  2
Realistic
 70
     8
 71
     2
 72
     3
 73
     0
 90
        2
 40
0.6
 41
30.0
 62
     5
 63
     7
421
 16777215
 74
     0
 91
        0
 64
     7
 65
   257
 75
     1
175
     1
 42
1.0
 92
        8
 66
   257
 43
1.0
 76
     1
 77
     6
 78
     2
 67
     7
 79
     3
170
     0
171
     0
290
     0
174
     0
 93
       13
 44
0.0
173
     0
291
     0
 45
0.0
1001
ACAD
1000
AcDbSavedByObjectVersion
1070
     0
  0
VISUALSTYLE
  5
36D
102
{ACAD_REACTORS
330
355
102
}
102
{ACAD_XDICTIONARY
360
3A6
102
}
330
355
100
AcDbVisualStyle
  2
Shaded
 70
    27
 71
     2
 72
     2
 73
     1
 90
        2
 40
0.6
 41
30.0
 62
     5
 63
     7
421
 16777215
 74
     0
 91
        4
 64
     7
 65
   257
 75
     1
175
     1
 42
1.0
 92
        8
 66
   257
 43
1.0
 76
     1
 77
     6
 78
     2
 67
     8
425
  7895160
 79
     3
170
     0
171
     0
290
     0
174
     0
 93
        5
 44
0.0
173
     0
291
     0
 45
0.0
1001
ACAD
1000
AcDbSavedByObjectVersion
1070
     0
  0
VISUALSTYLE
  5
36C
102
{ACAD_REACTORS
330
355
102
}
102
{ACAD_XDICTIONARY
360
3A4
102
}
330
355
100
AcDbVisualStyle
  2
Shaded with edges
 70
    26
 71
     2
 72
     2
 73
     1
 90
        2
 40
0.6
 41
30.0
 62
     5
 63
     7
421
 16777215
 74
     1
 91
       10
 64
     7
 65
   257
 75
     2
175
     1
 42
1.0
 92
        8
 66
   257
 43
1.0
 76
     1
 77
     6
 78
     2
 67
     7
 79
     3
170
     0
171
     0
290
     0
174
     0
 93
        5
 44
0.0
173
     0
291
     0
 45
0.0
1001
ACAD
1000
AcDbSavedByObjectVersion
1070
     0
  0
VISUALSTYLE
  5
369
102
{ACAD_REACTORS
330
355
102
}
102
{ACAD_XDICTIONARY
360
39E
102
}
330
355
100
AcDbVisualStyle
  2
Shades of Gray
 70
    23
 71
     2
 72
     2
 73
     3
 90
        0
 40
0.6
 41
30.0
 62
     5
 63
     7
421
 16777215
 74
     2
 91
        2
 64
     7
 65
     7
 75
     1
175
     1
 42
40.0
 92
        8
 66
     7
 43
1.0
 76
     1
 77
     6
 78
     2
 67
     7
 79
     3
170
     0
171
     0
290
     0
174
     0
 93
        1
 44
0.0
173
     0
291
     0
 45
0.0
1001
ACAD
1000
AcDbSavedByObjectVersion
1070
     0
  0
VISUALSTYLE
  5
36A
102
{ACAD_REACTORS
330
355
102
}
102
{ACAD_XDICTIONARY
360
3A0
102
}
330
355
100
AcDbVisualStyle
  2
Sketchy
 70
    24
 71
     1
 72
     2
 73
     2
 90
        0
 40
0.6
 41
30.0
 62
     5
 63
     7
421
 16777215
 74
     2
 91
        2
 64
     7
 65
     7
 75
     1
175
     1
 42
40.0
 92
       11
 66
     7
 43
1.0
 76
     1
 77
     6
 78
     2
 67
     7
 79
     6
170
     0
171
     0
290
     0
174
     0
 93
        1
 44
0.0
173
     0
291
     0
 45
0.0
1001
ACAD
1000
AcDbSavedByObjectVersion
1070
     0
  0
VISUALSTYLE
  5
362
102
{ACAD_REACTORS
330
355
102
}
102
{ACAD_XDICTIONARY
360
390
102
}
330
355
100
AcDbVisualStyle
  2
Thicken
 70
    13
 71
     2
 72
     2
 73
     0
 90
        0
 40
0.6
 41
30.0
 62
     5
 63
     7
421
 16777215
 74
     1
 91
        4
 64
     7
 65
   257
 75
     1
175
     1
 42
1.0
 92
       12
 66
     7
 43
1.0
 76
     1
 77
     6
 78
     2
 67
     7
 79
     5
170
     0
171
     0
290
     0
174
     0
 93
        1
 44
0.0
173
     0
291
     1
 45
0.0
1001
ACAD
1000
AcDbSavedByObjectVersion
1070
     0
  0
VISUALSTYLE
  5
35B
102
{ACAD_REACTORS
330
355
102
}
102
{ACAD_XDICTIONARY
360
382
102
}
330
355
100
AcDbVisualStyle
  2
Wireframe
 70
     5
 71
     0
 72
     2
 73
     0
 90
        0
 40
0.6
 41
30.0
 62
     5
 63
     7
421
 16777215
 74
     1
 91
        4
 64
     7
 65
   257
 75
     1
175
     1
 42
1.0
 92
        0
 66
   257
 43
1.0
 76
     1
 77
     6
 78
     2
 67
     7
 79
     3
170
     0
171
     0
290
     0
174
     0
 93
        1
 44
0.0
173
     0
291
     0
 45
0.0
1001
ACAD
1000
AcDbSavedByObjectVersion
1070
     0
  0
VISUALSTYLE
  5
36B
102
{ACAD_REACTORS
330
355
102
}
102
{ACAD_XDICTIONARY
360
3A2
102
}
330
355
100
AcDbVisualStyle
  2
X-Ray
 70
    25
 71
     2
 72
     2
 73
     1
 90
        1
 40
0.5
 41
30.0
 62
     5
 63
     7
421
 16777215
 74
     1
 91
        0
 64
     7
 65
   257
 75
     1
175
     1
 42
1.0
 92
        8
 66
     7
 43
1.0
 76
     1
 77
     6
 78
     2
 67
     7
 79
     3
170
     0
171
     0
290
     0
174
     0
 93
       13
 44
0.0
173
     0
291
     0
 45
0.0
1001
ACAD
1000
AcDbSavedByObjectVersion
1070
     0
  0
DICTIONARYVAR
  5
377
102
{ACAD_REACTORS
330
376
102
}
330
376
100
DictionaryVariables
280
     0
  1
1:1
  0
DICTIONARYVAR
  5
3B0
102
{ACAD_REACTORS
330
376
102
}
330
376
100
DictionaryVariables
280
     0
  1
0
  0
DICTIONARY
  5
3AA
330
370
100
AcDbDictionary
280
     1
281
     1
  3
ACAD_XREC_ROUNDTRIP
360
3AB
  0
DICTIONARY
  5
3A8
330
36F
100
AcDbDictionary
280
     1
281
     1
  3
ACAD_XREC_ROUNDTRIP
360
3A9
  0
DICTIONARY
  5
3AC
330
371
100
AcDbDictionary
280
     1
281
     1
  3
ACAD_XREC_ROUNDTRIP
360
3AD
  0
DICTIONARY
  5
380
330
35A
100
AcDbDictionary
280
     1
281
     1
  3
ACAD_XREC_ROUNDTRIP
360
381
  0
DICTIONARY
  5
386
330
35D
100
AcDbDictionary
280
     1
281
     1
  3
ACAD_XREC_ROUNDTRIP
360
387
  0
DICTIONARY
  5
38E
330
361
100
AcDbDictionary
280
     1
281
     1
  3
ACAD_XREC_ROUNDTRIP
360
38F
  0
DICTIONARY
  5
396
330
365
100
AcDbDictionary
280
     1
281
     1
  3
ACAD_XREC_ROUNDTRIP
360
397
  0
DICTIONARY
  5
38A
330
35F
100
AcDbDictionary
280
     1
281
     1
  3
ACAD_XREC_ROUNDTRIP
360
38B
  0
DICTIONARY
  5
38C
330
360
100
AcDbDictionary
280
     1
281
     1
  3
ACAD_XREC_ROUNDTRIP
360
38D
  0
DICTIONARY
  5
39C
330
368
100
AcDbDictionary
280
     1
281
     1
  3
ACAD_XREC_ROUNDTRIP
360
39D
  0
DICTIONARY
  5
394
330
364
100
AcDbDictionary
280
     1
281
     1
  3
ACAD_XREC_ROUNDTRIP
360
395
  0
DICTIONARY
  5
378
330
356
100
AcDbDictionary
280
     1
281
     1
  3
ACAD_XREC_ROUNDTRIP
360
379
  0
DICTIONARY
  5
37A
330
357
100
AcDbDictionary
280
     1
281
     1
  3
ACAD_XREC_ROUNDTRIP
360
37B
  0
DICTIONARY
  5
37C
330
358
100
AcDbDictionary
280
     1
281
     1
  3
ACAD_XREC_ROUNDTRIP
360
37D
  0
DICTIONARY
  5
37E
330
359
100
AcDbDictionary
280
     1
281
     1
  3
ACAD_XREC_ROUNDTRIP
360
37F
  0
DICTIONARY
  5
384
330
35C
100
AcDbDictionary
280
     1
281
     1
  3
ACAD_XREC_ROUNDTRIP
360
385
  0
DICTIONARY
  5
398
330
366
100
AcDbDictionary
280
     1
281
     1
  3
ACAD_XREC_ROUNDTRIP
360
399
  0
DICTIONARY
  5
392
330
363
100
AcDbDictionary
280
     1
281
     1
  3
ACAD_XREC_ROUNDTRIP
360
393
  0
DICTIONARY
  5
39A
330
367
100
AcDbDictionary
280
     1
281
     1
  3
ACAD_XREC_ROUNDTRIP
360
39B
  0
DICTIONARY
  5
388
330
35E
100
AcDbDictionary
280
     1
281
     1
  3
ACAD_XREC_ROUNDTRIP
360
389
  0
DICTIONARY
  5
3A6
330
36D
100
AcDbDictionary
280
     1
281
     1
  3
ACAD_XREC_ROUNDTRIP
360
3A7
  0
DICTIONARY
  5
3A4
330
36C
100
AcDbDictionary
280
     1
281
     1
  3
ACAD_XREC_ROUNDTRIP
360
3A5
  0
DICTIONARY
  5
39E
330
369
100
AcDbDictionary
280
     1
281
     1
  3
ACAD_XREC_ROUNDTRIP
360
39F
  0
DICTIONARY
  5
3A0
330
36A
100
AcDbDictionary
280
     1
281
     1
  3
ACAD_XREC_ROUNDTRIP
360
3A1
  0
DICTIONARY
  5
390
330
362
100
AcDbDictionary
280
     1
281
     1
  3
ACAD_XREC_ROUNDTRIP
360
391
  0
DICTIONARY
  5
382
330
35B
100
AcDbDictionary
280
     1
281
     1
  3
ACAD_XREC_ROUNDTRIP
360
383
  0
DICTIONARY
  5
3A2
330
36B
100
AcDbDictionary
280
     1
281
     1
  3
ACAD_XREC_ROUNDTRIP
360
3A3
  0
XRECORD
  5
3AB
102
{ACAD_REACTORS
330
3AA
102
}
330
3AA
100
AcDbXrecord
280
     1
102
MATERIAL
148
0.0
149
0.0
149
0.0
 93
        0
 94
      127
282
     0
 72
     1
 77
     1
171
     1
175
     1
179
     1
273
     0
  0
XRECORD
  5
3A9
102
{ACAD_REACTORS
330
3A8
102
}
330
3A8
100
AcDbXrecord
280
     1
102
MATERIAL
148
0.0
149
0.0
149
0.0
 93
        0
 94
      127
282
     0
 72
     1
 77
     1
171
     1
175
     1
179
     1
273
     0
  0
XRECORD
  5
3AD
102
{ACAD_REACTORS
330
3AC
102
}
330
3AC
100
AcDbXrecord
280
     1
102
MATERIAL
148
0.0
149
0.0
149
0.0
 93
        0
 94
      127
282
     0
 72
     1
 77
     1
171
     1
175
     1
179
     1
273
     0
  0
XRECORD
  5
381
102
{ACAD_REACTORS
330
380
102
}
330
380
100
AcDbXrecord
280
     1
102
RTVSPropertyOp0
 70
     1
102
RTVSPropertyOp1
 70
     1
102
RTVSPropertyOp2
 70
     1
102
RTVSPropertyOp3
 70
     1
102
RTVSPropertyOp4
 70
     1
102
RTVSPropertyOp5
 70
     1
102
RTVSPropertyOp6
 70
     1
102
RTVSPropertyOp7
 70
     1
102
RTVSPropertyOp8
 70
     1
102
RTVSPropertyOp9
 70
     1
102
RTVSPropertyOp10
 70
     1
102
RTVSPropertyOp11
 70
     1
102
RTVSPropertyOp12
 70
     1
102
RTVSPropertyOp13
 70
     1
102
RTVSPropertyOp14
 70
     1
102
RTVSPropertyOp15
 70
     1
102
RTVSPropertyOp16
 70
     1
102
RTVSPropertyOp17
 70
     1
102
RTVSPropertyOp18
 70
     1
102
RTVSPropertyOp19
 70
     1
102
RTVSPropertyOp20
 70
     1
102
RTVSPropertyOp21
 70
     1
102
RTVSPropertyOp22
 70
     1
102
RTVSPropertyOp23
 70
     1
102
RTVSPropertyOp24
 70
     1
102
RTVSPropertyOp25
 70
     1
102
RTVSPropertyOp26
 70
     1
102
RTVSPropertyOp27
 70
     1
102
RTVSPropertyOp28
 70
     1
102
RTVSPropertyOp29
 70
     1
102
RTVSPropertyOp30
 70
     1
102
RTVSPropertyOp31
 70
     1
102
RTVSPropertyOp32
 70
     1
102
RTVSPropertyOp33
 70
     1
102
RTVSPropertyOp34
 70
     1
102
RTVSPropertyOp35
 70
     1
102
RTVSPropertyOp36
 70
     1
102
RTVSPropertyOp37
 70
     1
102
RTVSPropertyOp38
 70
     1
102
RTVSPropertyOp39
 70
     1
102
RTVSPropertyOp40
 70
     1
102
RTVSPropertyOp41
 70
     1
102
RTVSPropertyOp42
 70
     1
102
RTVSPropertyOp43
 70
     1
102
RTVSPropertyOp44
 70
     1
102
RTVSPropertyOp45
 70
     1
102
RTVSPropertyOp46
 70
     1
102
RTVSPropertyOp47
 70
     1
102
RTVSPropertyOp48
 70
     1
102
RTVSPropertyOp49
 70
     1
102
RTVSPropertyOp50
 70
     1
102
RTVSPropertyOp51
 70
     0
102
RTVSPropertyOp52
 70
     0
102
RTVSPropertyOp53
 70
     1
102
RTVSPropertyOp54
 70
     1
102
RTVSPropertyOp55
 70
     1
102
RTVSPropertyOp56
 70
     1
102
RTVSPropertyOp57
 70
     1
102
RTVSPost2010Prop28
280
     1
102
RTVSPost2010PropOp28
 70
     1
102
RTVSPost2010Prop29
280
     1
102
RTVSPost2010PropOp29
 70
     1
102
RTVSPost2010Prop30
280
     0
102
RTVSPost2010PropOp30
 70
     1
102
RTVSPost2010Prop31
280
     0
102
RTVSPost2010PropOp31
 70
     1
102
RTVSPost2010Prop32
280
     0
102
RTVSPost2010PropOp32
 70
     1
102
RTVSPost2010Prop33
280
     0
102
RTVSPost2010PropOp33
 70
     1
102
RTVSPost2010Prop34
280
     0
102
RTVSPost2010PropOp34
 70
     1
102
RTVSPost2010Prop35
280
     0
102
RTVSPost2010PropOp35
 70
     1
102
RTVSPost2010Prop36
280
     0
102
RTVSPost2010PropOp36
 70
     1
102
RTVSPost2010Prop37
 90
       50
102
RTVSPost2010PropOp37
 70
     1
102
RTVSPost2010Prop38
140
0.0
102
RTVSPost2010PropOp38
 70
     1
102
RTVSPost2010Prop39
140
1.0
102
RTVSPost2010PropOp39
 70
     1
102
RTVSPost2010Prop40
 90
        0
102
RTVSPost2010PropOp40
 70
     1
102
RTVSPost2010Prop41ColorIndex
 90
       18
102
RTVSPost2010Prop41ColorRGB
 90
        0
102
RTVSPost2010PropOp41
 70
     1
102
RTVSPost2010Prop42
 90
       50
102
RTVSPost2010PropOp42
 70
     1
102
RTVSPost2010Prop43
 90
        3
102
RTVSPost2010PropOp43
 70
     1
102
RTVSPost2010Prop44ColorIndex
 90
        5
102
RTVSPost2010Prop44ColorRGB
 90
      255
102
RTVSPost2010PropOp44
 70
     1
102
RTVSPost2010Prop45
280
     0
102
RTVSPost2010PropOp45
 70
     1
102
RTVSPost2010Prop46
 90
       50
102
RTVSPost2010PropOp46
 70
     1
102
RTVSPost2010Prop47
 90
       50
102
RTVSPost2010PropOp47
 70
     1
102
RTVSPost2010Prop48
 90
       50
102
RTVSPost2010PropOp48
 70
     1
102
RTVSPost2010Prop49
280
     0
102
RTVSPost2010PropOp49
 70
     1
102
RTVSPost2010Prop50
 90
       50
102
RTVSPost2010PropOp50
 70
     1
102
RTVSPost2010Prop51ColorIndex
 90
      256
102
RTVSPost2010Prop51ColorRGB
 90
-16777216
102
RTVSPost2010PropOp51
 70
     0
102
RTVSPost2010Prop52
140
1.0
102
RTVSPost2010PropOp52
 70
     0
102
RTVSPost2010Prop53
 90
        2
102
RTVSPost2010PropOp53
 70
     1
102
RTVSPost2010Prop54
  1
strokes_ogs.tif
102
RTVSPost2010PropOp54
 70
     1
102
RTVSPost2010Prop55
280
     0
102
RTVSPost2010PropOp55
 70
     1
102
RTVSPost2010Prop56
140
1.0
102
RTVSPost2010PropOp56
 70
     1
102
RTVSPost2010Prop57
140
1.0
102
RTVSPost2010PropOp57
 70
     1
  0
XRECORD
  5
387
102
{ACAD_REACTORS
330
386
102
}
330
386
100
AcDbXrecord
280
     1
102
RTVSPropertyOp0
 70
     1
102
RTVSPropertyOp1
 70
     1
102
RTVSPropertyOp2
 70
     1
102
RTVSPropertyOp3
 70
     1
102
RTVSPropertyOp4
 70
     1
102
RTVSPropertyOp5
 70
     1
102
RTVSPropertyOp6
 70
     1
102
RTVSPropertyOp7
 70
     1
102
RTVSPropertyOp8
 70
     1
102
RTVSPropertyOp9
 70
     1
102
RTVSPropertyOp10
 70
     1
102
RTVSPropertyOp11
 70
     1
102
RTVSPropertyOp12
 70
     1
102
RTVSPropertyOp13
 70
     1
102
RTVSPropertyOp14
 70
     1
102
RTVSPropertyOp15
 70
     1
102
RTVSPropertyOp16
 70
     1
102
RTVSPropertyOp17
 70
     1
102
RTVSPropertyOp18
 70
     1
102
RTVSPropertyOp19
 70
     1
102
RTVSPropertyOp20
 70
     1
102
RTVSPropertyOp21
 70
     1
102
RTVSPropertyOp22
 70
     1
102
RTVSPropertyOp23
 70
     1
102
RTVSPropertyOp24
 70
     1
102
RTVSPropertyOp25
 70
     1
102
RTVSPropertyOp26
 70
     1
102
RTVSPropertyOp27
 70
     1
102
RTVSPropertyOp28
 70
     1
102
RTVSPropertyOp29
 70
     1
102
RTVSPropertyOp30
 70
     1
102
RTVSPropertyOp31
 70
     1
102
RTVSPropertyOp32
 70
     1
102
RTVSPropertyOp33
 70
     1
102
RTVSPropertyOp34
 70
     1
102
RTVSPropertyOp35
 70
     1
102
RTVSPropertyOp36
 70
     1
102
RTVSPropertyOp37
 70
     1
102
RTVSPropertyOp38
 70
     1
102
RTVSPropertyOp39
 70
     1
102
RTVSPropertyOp40
 70
     1
102
RTVSPropertyOp41
 70
     1
102
RTVSPropertyOp42
 70
     1
102
RTVSPropertyOp43
 70
     1
102
RTVSPropertyOp44
 70
     1
102
RTVSPropertyOp45
 70
     1
102
RTVSPropertyOp46
 70
     1
102
RTVSPropertyOp47
 70
     1
102
RTVSPropertyOp48
 70
     1
102
RTVSPropertyOp49
 70
     1
102
RTVSPropertyOp50
 70
     1
102
RTVSPropertyOp51
 70
     0
102
RTVSPropertyOp52
 70
     0
102
RTVSPropertyOp53
 70
     1
102
RTVSPropertyOp54
 70
     1
102
RTVSPropertyOp55
 70
     1
102
RTVSPropertyOp56
 70
     1
102
RTVSPropertyOp57
 70
     1
102
RTVSPost2010Prop28
280
     0
102
RTVSPost2010PropOp28
 70
     1
102
RTVSPost2010Prop29
280
     1
102
RTVSPost2010PropOp29
 70
     1
102
RTVSPost2010Prop30
280
     1
102
RTVSPost2010PropOp30
 70
     1
102
RTVSPost2010Prop31
280
     0
102
RTVSPost2010PropOp31
 70
     1
102
RTVSPost2010Prop32
280
     0
102
RTVSPost2010PropOp32
 70
     1
102
RTVSPost2010Prop33
280
     0
102
RTVSPost2010PropOp33
 70
     1
102
RTVSPost2010Prop34
280
     0
102
RTVSPost2010PropOp34
 70
     1
102
RTVSPost2010Prop35
280
     0
102
RTVSPost2010PropOp35
 70
     1
102
RTVSPost2010Prop36
280
     0
102
RTVSPost2010PropOp36
 70
     1
102
RTVSPost2010Prop37
 90
       50
102
RTVSPost2010PropOp37
 70
     1
102
RTVSPost2010Prop38
140
0.0
102
RTVSPost2010PropOp38
 70
     1
102
RTVSPost2010Prop39
140
1.0
102
RTVSPost2010PropOp39
 70
     1
102
RTVSPost2010Prop40
 90
        0
102
RTVSPost2010PropOp40
 70
     1
102
RTVSPost2010Prop41ColorIndex
 90
       18
102
RTVSPost2010Prop41ColorRGB
 90
        0
102
RTVSPost2010PropOp41
 70
     1
102
RTVSPost2010Prop42
 90
       50
102
RTVSPost2010PropOp42
 70
     1
102
RTVSPost2010Prop43
 90
        3
102
RTVSPost2010PropOp43
 70
     1
102
RTVSPost2010Prop44ColorIndex
 90
        5
102
RTVSPost2010Prop44ColorRGB
 90
      255
102
RTVSPost2010PropOp44
 70
     1
102
RTVSPost2010Prop45
280
     0
102
RTVSPost2010PropOp45
 70
     1
102
RTVSPost2010Prop46
 90
       50
102
RTVSPost2010PropOp46
 70
     1
102
RTVSPost2010Prop47
 90
       50
102
RTVSPost2010PropOp47
 70
     1
102
RTVSPost2010Prop48
 90
       50
102
RTVSPost2010PropOp48
 70
     1
102
RTVSPost2010Prop49
280
     0
102
RTVSPost2010PropOp49
 70
     1
102
RTVSPost2010Prop50
 90
       50
102
RTVSPost2010PropOp50
 70
     1
102
RTVSPost2010Prop51ColorIndex
 90
      256
102
RTVSPost2010Prop51ColorRGB
 90
-16777216
102
RTVSPost2010PropOp51
 70
     0
102
RTVSPost2010Prop52
140
1.0
102
RTVSPost2010PropOp52
 70
     0
102
RTVSPost2010Prop53
 90
        2
102
RTVSPost2010PropOp53
 70
     1
102
RTVSPost2010Prop54
  1
strokes_ogs.tif
102
RTVSPost2010PropOp54
 70
     1
102
RTVSPost2010Prop55
280
     0
102
RTVSPost2010PropOp55
 70
     1
102
RTVSPost2010Prop56
140
1.0
102
RTVSPost2010PropOp56
 70
     1
102
RTVSPost2010Prop57
140
1.0
102
RTVSPost2010PropOp57
 70
     1
  0
XRECORD
  5
38F
102
{ACAD_REACTORS
330
38E
102
}
330
38E
100
AcDbXrecord
280
     1
102
RTVSPropertyOp0
 70
     1
102
RTVSPropertyOp1
 70
     1
102
RTVSPropertyOp2
 70
     1
102
RTVSPropertyOp3
 70
     1
102
RTVSPropertyOp4
 70
     1
102
RTVSPropertyOp5
 70
     1
102
RTVSPropertyOp6
 70
     1
102
RTVSPropertyOp7
 70
     1
102
RTVSPropertyOp8
 70
     1
102
RTVSPropertyOp9
 70
     1
102
RTVSPropertyOp10
 70
     1
102
RTVSPropertyOp11
 70
     1
102
RTVSPropertyOp12
 70
     1
102
RTVSPropertyOp13
 70
     1
102
RTVSPropertyOp14
 70
     1
102
RTVSPropertyOp15
 70
     1
102
RTVSPropertyOp16
 70
     1
102
RTVSPropertyOp17
 70
     1
102
RTVSPropertyOp18
 70
     1
102
RTVSPropertyOp19
 70
     1
102
RTVSPropertyOp20
 70
     1
102
RTVSPropertyOp21
 70
     1
102
RTVSPropertyOp22
 70
     1
102
RTVSPropertyOp23
 70
     1
102
RTVSPropertyOp24
 70
     1
102
RTVSPropertyOp25
 70
     1
102
RTVSPropertyOp26
 70
     1
102
RTVSPropertyOp27
 70
     1
102
RTVSPropertyOp28
 70
     1
102
RTVSPropertyOp29
 70
     1
102
RTVSPropertyOp30
 70
     1
102
RTVSPropertyOp31
 70
     1
102
RTVSPropertyOp32
 70
     1
102
RTVSPropertyOp33
 70
     1
102
RTVSPropertyOp34
 70
     1
102
RTVSPropertyOp35
 70
     1
102
RTVSPropertyOp36
 70
     1
102
RTVSPropertyOp37
 70
     1
102
RTVSPropertyOp38
 70
     1
102
RTVSPropertyOp39
 70
     1
102
RTVSPropertyOp40
 70
     1
102
RTVSPropertyOp41
 70
     1
102
RTVSPropertyOp42
 70
     1
102
RTVSPropertyOp43
 70
     1
102
RTVSPropertyOp44
 70
     1
102
RTVSPropertyOp45
 70
     1
102
RTVSPropertyOp46
 70
     1
102
RTVSPropertyOp47
 70
     1
102
RTVSPropertyOp48
 70
     1
102
RTVSPropertyOp49
 70
     1
102
RTVSPropertyOp50
 70
     1
102
RTVSPropertyOp51
 70
     0
102
RTVSPropertyOp52
 70
     0
102
RTVSPropertyOp53
 70
     1
102
RTVSPropertyOp54
 70
     1
102
RTVSPropertyOp55
 70
     1
102
RTVSPropertyOp56
 70
     1
102
RTVSPropertyOp57
 70
     1
102
RTVSPost2010Prop28
280
     0
102
RTVSPost2010PropOp28
 70
     1
102
RTVSPost2010Prop29
280
     1
102
RTVSPost2010PropOp29
 70
     1
102
RTVSPost2010Prop30
280
     1
102
RTVSPost2010PropOp30
 70
     1
102
RTVSPost2010Prop31
280
     0
102
RTVSPost2010PropOp31
 70
     1
102
RTVSPost2010Prop32
280
     0
102
RTVSPost2010PropOp32
 70
     1
102
RTVSPost2010Prop33
280
     0
102
RTVSPost2010PropOp33
 70
     1
102
RTVSPost2010Prop34
280
     0
102
RTVSPost2010PropOp34
 70
     1
102
RTVSPost2010Prop35
280
     0
102
RTVSPost2010PropOp35
 70
     1
102
RTVSPost2010Prop36
280
     0
102
RTVSPost2010PropOp36
 70
     1
102
RTVSPost2010Prop37
 90
       50
102
RTVSPost2010PropOp37
 70
     1
102
RTVSPost2010Prop38
140
0.0
102
RTVSPost2010PropOp38
 70
     1
102
RTVSPost2010Prop39
140
1.0
102
RTVSPost2010PropOp39
 70
     1
102
RTVSPost2010Prop40
 90
        0
102
RTVSPost2010PropOp40
 70
     1
102
RTVSPost2010Prop41ColorIndex
 90
       18
102
RTVSPost2010Prop41ColorRGB
 90
        0
102
RTVSPost2010PropOp41
 70
     1
102
RTVSPost2010Prop42
 90
       50
102
RTVSPost2010PropOp42
 70
     1
102
RTVSPost2010Prop43
 90
        3
102
RTVSPost2010PropOp43
 70
     1
102
RTVSPost2010Prop44ColorIndex
 90
        5
102
RTVSPost2010Prop44ColorRGB
 90
      255
102
RTVSPost2010PropOp44
 70
     1
102
RTVSPost2010Prop45
280
     0
102
RTVSPost2010PropOp45
 70
     1
102
RTVSPost2010Prop46
 90
       50
102
RTVSPost2010PropOp46
 70
     1
102
RTVSPost2010Prop47
 90
       50
102
RTVSPost2010PropOp47
 70
     1
102
RTVSPost2010Prop48
 90
       50
102
RTVSPost2010PropOp48
 70
     1
102
RTVSPost2010Prop49
280
     0
102
RTVSPost2010PropOp49
 70
     1
102
RTVSPost2010Prop50
 90
       50
102
RTVSPost2010PropOp50
 70
     1
102
RTVSPost2010Prop51ColorIndex
 90
      256
102
RTVSPost2010Prop51ColorRGB
 90
-16777216
102
RTVSPost2010PropOp51
 70
     0
102
RTVSPost2010Prop52
140
1.0
102
RTVSPost2010PropOp52
 70
     0
102
RTVSPost2010Prop53
 90
        2
102
RTVSPost2010PropOp53
 70
     1
102
RTVSPost2010Prop54
  1
strokes_ogs.tif
102
RTVSPost2010PropOp54
 70
     1
102
RTVSPost2010Prop55
280
     0
102
RTVSPost2010PropOp55
 70
     1
102
RTVSPost2010Prop56
140
1.0
102
RTVSPost2010PropOp56
 70
     1
102
RTVSPost2010Prop57
140
1.0
102
RTVSPost2010PropOp57
 70
     1
  0
XRECORD
  5
397
102
{ACAD_REACTORS
330
396
102
}
330
396
100
AcDbXrecord
280
     1
102
RTVSPropertyOp0
 70
     1
102
RTVSPropertyOp1
 70
     1
102
RTVSPropertyOp2
 70
     1
102
RTVSPropertyOp3
 70
     1
102
RTVSPropertyOp4
 70
     1
102
RTVSPropertyOp5
 70
     1
102
RTVSPropertyOp6
 70
     1
102
RTVSPropertyOp7
 70
     1
102
RTVSPropertyOp8
 70
     1
102
RTVSPropertyOp9
 70
     1
102
RTVSPropertyOp10
 70
     1
102
RTVSPropertyOp11
 70
     1
102
RTVSPropertyOp12
 70
     1
102
RTVSPropertyOp13
 70
     1
102
RTVSPropertyOp14
 70
     1
102
RTVSPropertyOp15
 70
     1
102
RTVSPropertyOp16
 70
     1
102
RTVSPropertyOp17
 70
     1
102
RTVSPropertyOp18
 70
     1
102
RTVSPropertyOp19
 70
     1
102
RTVSPropertyOp20
 70
     1
102
RTVSPropertyOp21
 70
     1
102
RTVSPropertyOp22
 70
     1
102
RTVSPropertyOp23
 70
     1
102
RTVSPropertyOp24
 70
     1
102
RTVSPropertyOp25
 70
     1
102
RTVSPropertyOp26
 70
     1
102
RTVSPropertyOp27
 70
     1
102
RTVSPropertyOp28
 70
     1
102
RTVSPropertyOp29
 70
     1
102
RTVSPropertyOp30
 70
     1
102
RTVSPropertyOp31
 70
     1
102
RTVSPropertyOp32
 70
     1
102
RTVSPropertyOp33
 70
     1
102
RTVSPropertyOp34
 70
     1
102
RTVSPropertyOp35
 70
     1
102
RTVSPropertyOp36
 70
     1
102
RTVSPropertyOp37
 70
     1
102
RTVSPropertyOp38
 70
     1
102
RTVSPropertyOp39
 70
     1
102
RTVSPropertyOp40
 70
     1
102
RTVSPropertyOp41
 70
     1
102
RTVSPropertyOp42
 70
     1
102
RTVSPropertyOp43
 70
     1
102
RTVSPropertyOp44
 70
     1
102
RTVSPropertyOp45
 70
     1
102
RTVSPropertyOp46
 70
     1
102
RTVSPropertyOp47
 70
     1
102
RTVSPropertyOp48
 70
     1
102
RTVSPropertyOp49
 70
     1
102
RTVSPropertyOp50
 70
     1
102
RTVSPropertyOp51
 70
     0
102
RTVSPropertyOp52
 70
     0
102
RTVSPropertyOp53
 70
     1
102
RTVSPropertyOp54
 70
     1
102
RTVSPropertyOp55
 70
     1
102
RTVSPropertyOp56
 70
     1
102
RTVSPropertyOp57
 70
     1
102
RTVSPost2010Prop28
280
     0
102
RTVSPost2010PropOp28
 70
     1
102
RTVSPost2010Prop29
280
     1
102
RTVSPost2010PropOp29
 70
     1
102
RTVSPost2010Prop30
280
     1
102
RTVSPost2010PropOp30
 70
     1
102
RTVSPost2010Prop31
280
     0
102
RTVSPost2010PropOp31
 70
     1
102
RTVSPost2010Prop32
280
     0
102
RTVSPost2010PropOp32
 70
     1
102
RTVSPost2010Prop33
280
     0
102
RTVSPost2010PropOp33
 70
     1
102
RTVSPost2010Prop34
280
     0
102
RTVSPost2010PropOp34
 70
     1
102
RTVSPost2010Prop35
280
     0
102
RTVSPost2010PropOp35
 70
     1
102
RTVSPost2010Prop36
280
     0
102
RTVSPost2010PropOp36
 70
     1
102
RTVSPost2010Prop37
 90
       50
102
RTVSPost2010PropOp37
 70
     1
102
RTVSPost2010Prop38
140
0.0
102
RTVSPost2010PropOp38
 70
     1
102
RTVSPost2010Prop39
140
1.0
102
RTVSPost2010PropOp39
 70
     1
102
RTVSPost2010Prop40
 90
        0
102
RTVSPost2010PropOp40
 70
     1
102
RTVSPost2010Prop41ColorIndex
 90
       18
102
RTVSPost2010Prop41ColorRGB
 90
        0
102
RTVSPost2010PropOp41
 70
     1
102
RTVSPost2010Prop42
 90
       50
102
RTVSPost2010PropOp42
 70
     1
102
RTVSPost2010Prop43
 90
        3
102
RTVSPost2010PropOp43
 70
     1
102
RTVSPost2010Prop44ColorIndex
 90
        5
102
RTVSPost2010Prop44ColorRGB
 90
      255
102
RTVSPost2010PropOp44
 70
     1
102
RTVSPost2010Prop45
280
     0
102
RTVSPost2010PropOp45
 70
     1
102
RTVSPost2010Prop46
 90
       50
102
RTVSPost2010PropOp46
 70
     1
102
RTVSPost2010Prop47
 90
       50
102
RTVSPost2010PropOp47
 70
     1
102
RTVSPost2010Prop48
 90
       50
102
RTVSPost2010PropOp48
 70
     1
102
RTVSPost2010Prop49
280
     0
102
RTVSPost2010PropOp49
 70
     1
102
RTVSPost2010Prop50
 90
       50
102
RTVSPost2010PropOp50
 70
     1
102
RTVSPost2010Prop51ColorIndex
 90
      256
102
RTVSPost2010Prop51ColorRGB
 90
-16777216
102
RTVSPost2010PropOp51
 70
     0
102
RTVSPost2010Prop52
140
1.0
102
RTVSPost2010PropOp52
 70
     0
102
RTVSPost2010Prop53
 90
        2
102
RTVSPost2010PropOp53
 70
     1
102
RTVSPost2010Prop54
  1
strokes_ogs.tif
102
RTVSPost2010PropOp54
 70
     1
102
RTVSPost2010Prop55
280
     0
102
RTVSPost2010PropOp55
 70
     1
102
RTVSPost2010Prop56
140
1.0
102
RTVSPost2010PropOp56
 70
     1
102
RTVSPost2010Prop57
140
1.0
102
RTVSPost2010PropOp57
 70
     1
  0
XRECORD
  5
38B
102
{ACAD_REACTORS
330
38A
102
}
330
38A
100
AcDbXrecord
280
     1
102
RTVSPropertyOp0
 70
     1
102
RTVSPropertyOp1
 70
     1
102
RTVSPropertyOp2
 70
     1
102
RTVSPropertyOp3
 70
     1
102
RTVSPropertyOp4
 70
     1
102
RTVSPropertyOp5
 70
     1
102
RTVSPropertyOp6
 70
     1
102
RTVSPropertyOp7
 70
     1
102
RTVSPropertyOp8
 70
     1
102
RTVSPropertyOp9
 70
     1
102
RTVSPropertyOp10
 70
     1
102
RTVSPropertyOp11
 70
     1
102
RTVSPropertyOp12
 70
     1
102
RTVSPropertyOp13
 70
     1
102
RTVSPropertyOp14
 70
     1
102
RTVSPropertyOp15
 70
     1
102
RTVSPropertyOp16
 70
     1
102
RTVSPropertyOp17
 70
     1
102
RTVSPropertyOp18
 70
     1
102
RTVSPropertyOp19
 70
     1
102
RTVSPropertyOp20
 70
     1
102
RTVSPropertyOp21
 70
     1
102
RTVSPropertyOp22
 70
     1
102
RTVSPropertyOp23
 70
     1
102
RTVSPropertyOp24
 70
     1
102
RTVSPropertyOp25
 70
     1
102
RTVSPropertyOp26
 70
     1
102
RTVSPropertyOp27
 70
     1
102
RTVSPropertyOp28
 70
     1
102
RTVSPropertyOp29
 70
     1
102
RTVSPropertyOp30
 70
     1
102
RTVSPropertyOp31
 70
     1
102
RTVSPropertyOp32
 70
     1
102
RTVSPropertyOp33
 70
     1
102
RTVSPropertyOp34
 70
     1
102
RTVSPropertyOp35
 70
     1
102
RTVSPropertyOp36
 70
     1
102
RTVSPropertyOp37
 70
     1
102
RTVSPropertyOp38
 70
     1
102
RTVSPropertyOp39
 70
     1
102
RTVSPropertyOp40
 70
     1
102
RTVSPropertyOp41
 70
     1
102
RTVSPropertyOp42
 70
     1
102
RTVSPropertyOp43
 70
     1
102
RTVSPropertyOp44
 70
     1
102
RTVSPropertyOp45
 70
     1
102
RTVSPropertyOp46
 70
     1
102
RTVSPropertyOp47
 70
     1
102
RTVSPropertyOp48
 70
     1
102
RTVSPropertyOp49
 70
     1
102
RTVSPropertyOp50
 70
     1
102
RTVSPropertyOp51
 70
     0
102
RTVSPropertyOp52
 70
     0
102
RTVSPropertyOp53
 70
     1
102
RTVSPropertyOp54
 70
     1
102
RTVSPropertyOp55
 70
     1
102
RTVSPropertyOp56
 70
     1
102
RTVSPropertyOp57
 70
     1
102
RTVSPost2010Prop28
280
     0
102
RTVSPost2010PropOp28
 70
     1
102
RTVSPost2010Prop29
280
     1
102
RTVSPost2010PropOp29
 70
     1
102
RTVSPost2010Prop30
280
     1
102
RTVSPost2010PropOp30
 70
     1
102
RTVSPost2010Prop31
280
     0
102
RTVSPost2010PropOp31
 70
     1
102
RTVSPost2010Prop32
280
     0
102
RTVSPost2010PropOp32
 70
     1
102
RTVSPost2010Prop33
280
     0
102
RTVSPost2010PropOp33
 70
     1
102
RTVSPost2010Prop34
280
     0
102
RTVSPost2010PropOp34
 70
     1
102
RTVSPost2010Prop35
280
     0
102
RTVSPost2010PropOp35
 70
     1
102
RTVSPost2010Prop36
280
     0
102
RTVSPost2010PropOp36
 70
     1
102
RTVSPost2010Prop37
 90
       50
102
RTVSPost2010PropOp37
 70
     1
102
RTVSPost2010Prop38
140
0.0
102
RTVSPost2010PropOp38
 70
     1
102
RTVSPost2010Prop39
140
1.0
102
RTVSPost2010PropOp39
 70
     1
102
RTVSPost2010Prop40
 90
        0
102
RTVSPost2010PropOp40
 70
     1
102
RTVSPost2010Prop41ColorIndex
 90
       18
102
RTVSPost2010Prop41ColorRGB
 90
        0
102
RTVSPost2010PropOp41
 70
     1
102
RTVSPost2010Prop42
 90
       50
102
RTVSPost2010PropOp42
 70
     1
102
RTVSPost2010Prop43
 90
        3
102
RTVSPost2010PropOp43
 70
     1
102
RTVSPost2010Prop44ColorIndex
 90
        5
102
RTVSPost2010Prop44ColorRGB
 90
      255
102
RTVSPost2010PropOp44
 70
     1
102
RTVSPost2010Prop45
280
     0
102
RTVSPost2010PropOp45
 70
     1
102
RTVSPost2010Prop46
 90
       50
102
RTVSPost2010PropOp46
 70
     1
102
RTVSPost2010Prop47
 90
       50
102
RTVSPost2010PropOp47
 70
     1
102
RTVSPost2010Prop48
 90
       50
102
RTVSPost2010PropOp48
 70
     1
102
RTVSPost2010Prop49
280
     0
102
RTVSPost2010PropOp49
 70
     1
102
RTVSPost2010Prop50
 90
       50
102
RTVSPost2010PropOp50
 70
     1
102
RTVSPost2010Prop51ColorIndex
 90
      256
102
RTVSPost2010Prop51ColorRGB
 90
-16777216
102
RTVSPost2010PropOp51
 70
     0
102
RTVSPost2010Prop52
140
1.0
102
RTVSPost2010PropOp52
 70
     0
102
RTVSPost2010Prop53
 90
        2
102
RTVSPost2010PropOp53
 70
     1
102
RTVSPost2010Prop54
  1
strokes_ogs.tif
102
RTVSPost2010PropOp54
 70
     1
102
RTVSPost2010Prop55
280
     0
102
RTVSPost2010PropOp55
 70
     1
102
RTVSPost2010Prop56
140
1.0
102
RTVSPost2010PropOp56
 70
     1
102
RTVSPost2010Prop57
140
1.0
102
RTVSPost2010PropOp57
 70
     1
  0
XRECORD
  5
38D
102
{ACAD_REACTORS
330
38C
102
}
330
38C
100
AcDbXrecord
280
     1
102
RTVSPropertyOp0
 70
     1
102
RTVSPropertyOp1
 70
     1
102
RTVSPropertyOp2
 70
     1
102
RTVSPropertyOp3
 70
     1
102
RTVSPropertyOp4
 70
     1
102
RTVSPropertyOp5
 70
     1
102
RTVSPropertyOp6
 70
     1
102
RTVSPropertyOp7
 70
     1
102
RTVSPropertyOp8
 70
     1
102
RTVSPropertyOp9
 70
     1
102
RTVSPropertyOp10
 70
     1
102
RTVSPropertyOp11
 70
     1
102
RTVSPropertyOp12
 70
     1
102
RTVSPropertyOp13
 70
     1
102
RTVSPropertyOp14
 70
     1
102
RTVSPropertyOp15
 70
     1
102
RTVSPropertyOp16
 70
     1
102
RTVSPropertyOp17
 70
     1
102
RTVSPropertyOp18
 70
     1
102
RTVSPropertyOp19
 70
     1
102
RTVSPropertyOp20
 70
     1
102
RTVSPropertyOp21
 70
     1
102
RTVSPropertyOp22
 70
     1
102
RTVSPropertyOp23
 70
     1
102
RTVSPropertyOp24
 70
     1
102
RTVSPropertyOp25
 70
     1
102
RTVSPropertyOp26
 70
     1
102
RTVSPropertyOp27
 70
     1
102
RTVSPropertyOp28
 70
     1
102
RTVSPropertyOp29
 70
     1
102
RTVSPropertyOp30
 70
     1
102
RTVSPropertyOp31
 70
     1
102
RTVSPropertyOp32
 70
     1
102
RTVSPropertyOp33
 70
     1
102
RTVSPropertyOp34
 70
     1
102
RTVSPropertyOp35
 70
     1
102
RTVSPropertyOp36
 70
     1
102
RTVSPropertyOp37
 70
     1
102
RTVSPropertyOp38
 70
     1
102
RTVSPropertyOp39
 70
     1
102
RTVSPropertyOp40
 70
     1
102
RTVSPropertyOp41
 70
     1
102
RTVSPropertyOp42
 70
     1
102
RTVSPropertyOp43
 70
     1
102
RTVSPropertyOp44
 70
     1
102
RTVSPropertyOp45
 70
     1
102
RTVSPropertyOp46
 70
     1
102
RTVSPropertyOp47
 70
     1
102
RTVSPropertyOp48
 70
     1
102
RTVSPropertyOp49
 70
     1
102
RTVSPropertyOp50
 70
     1
102
RTVSPropertyOp51
 70
     0
102
RTVSPropertyOp52
 70
     0
102
RTVSPropertyOp53
 70
     1
102
RTVSPropertyOp54
 70
     1
102
RTVSPropertyOp55
 70
     1
102
RTVSPropertyOp56
 70
     1
102
RTVSPropertyOp57
 70
     1
102
RTVSPost2010Prop28
280
     0
102
RTVSPost2010PropOp28
 70
     1
102
RTVSPost2010Prop29
280
     1
102
RTVSPost2010PropOp29
 70
     1
102
RTVSPost2010Prop30
280
     1
102
RTVSPost2010PropOp30
 70
     1
102
RTVSPost2010Prop31
280
     0
102
RTVSPost2010PropOp31
 70
     1
102
RTVSPost2010Prop32
280
     0
102
RTVSPost2010PropOp32
 70
     1
102
RTVSPost2010Prop33
280
     0
102
RTVSPost2010PropOp33
 70
     1
102
RTVSPost2010Prop34
280
     0
102
RTVSPost2010PropOp34
 70
     1
102
RTVSPost2010Prop35
280
     0
102
RTVSPost2010PropOp35
 70
     1
102
RTVSPost2010Prop36
280
     0
102
RTVSPost2010PropOp36
 70
     1
102
RTVSPost2010Prop37
 90
       50
102
RTVSPost2010PropOp37
 70
     1
102
RTVSPost2010Prop38
140
0.0
102
RTVSPost2010PropOp38
 70
     1
102
RTVSPost2010Prop39
140
1.0
102
RTVSPost2010PropOp39
 70
     1
102
RTVSPost2010Prop40
 90
        0
102
RTVSPost2010PropOp40
 70
     1
102
RTVSPost2010Prop41ColorIndex
 90
       18
102
RTVSPost2010Prop41ColorRGB
 90
        0
102
RTVSPost2010PropOp41
 70
     1
102
RTVSPost2010Prop42
 90
       50
102
RTVSPost2010PropOp42
 70
     1
102
RTVSPost2010Prop43
 90
        3
102
RTVSPost2010PropOp43
 70
     1
102
RTVSPost2010Prop44ColorIndex
 90
        5
102
RTVSPost2010Prop44ColorRGB
 90
      255
102
RTVSPost2010PropOp44
 70
     1
102
RTVSPost2010Prop45
280
     0
102
RTVSPost2010PropOp45
 70
     1
102
RTVSPost2010Prop46
 90
       50
102
RTVSPost2010PropOp46
 70
     1
102
RTVSPost2010Prop47
 90
       50
102
RTVSPost2010PropOp47
 70
     1
102
RTVSPost2010Prop48
 90
       50
102
RTVSPost2010PropOp48
 70
     1
102
RTVSPost2010Prop49
280
     0
102
RTVSPost2010PropOp49
 70
     1
102
RTVSPost2010Prop50
 90
       50
102
RTVSPost2010PropOp50
 70
     1
102
RTVSPost2010Prop51ColorIndex
 90
      256
102
RTVSPost2010Prop51ColorRGB
 90
-16777216
102
RTVSPost2010PropOp51
 70
     0
102
RTVSPost2010Prop52
140
1.0
102
RTVSPost2010PropOp52
 70
     0
102
RTVSPost2010Prop53
 90
        2
102
RTVSPost2010PropOp53
 70
     1
102
RTVSPost2010Prop54
  1
strokes_ogs.tif
102
RTVSPost2010PropOp54
 70
     1
102
RTVSPost2010Prop55
280
     0
102
RTVSPost2010PropOp55
 70
     1
102
RTVSPost2010Prop56
140
1.0
102
RTVSPost2010PropOp56
 70
     1
102
RTVSPost2010Prop57
140
1.0
102
RTVSPost2010PropOp57
 70
     1
  0
XRECORD
  5
39D
102
{ACAD_REACTORS
330
39C
102
}
330
39C
100
AcDbXrecord
280
     1
102
RTVSPropertyOp0
 70
     0
102
RTVSPropertyOp1
 70
     0
102
RTVSPropertyOp2
 70
     0
102
RTVSPropertyOp3
 70
     0
102
RTVSPropertyOp4
 70
     0
102
RTVSPropertyOp5
 70
     0
102
RTVSPropertyOp6
 70
     0
102
RTVSPropertyOp7
 70
     0
102
RTVSPropertyOp8
 70
     0
102
RTVSPropertyOp9
 70
     0
102
RTVSPropertyOp10
 70
     0
102
RTVSPropertyOp11
 70
     0
102
RTVSPropertyOp12
 70
     0
102
RTVSPropertyOp13
 70
     0
102
RTVSPropertyOp14
 70
     2
102
RTVSPropertyOp15
 70
     0
102
RTVSPropertyOp16
 70
     0
102
RTVSPropertyOp17
 70
     0
102
RTVSPropertyOp18
 70
     0
102
RTVSPropertyOp19
 70
     0
102
RTVSPropertyOp20
 70
     0
102
RTVSPropertyOp21
 70
     0
102
RTVSPropertyOp22
 70
     0
102
RTVSPropertyOp23
 70
     0
102
RTVSPropertyOp24
 70
     0
102
RTVSPropertyOp25
 70
     0
102
RTVSPropertyOp26
 70
     0
102
RTVSPropertyOp27
 70
     0
102
RTVSPropertyOp28
 70
     0
102
RTVSPropertyOp29
 70
     0
102
RTVSPropertyOp30
 70
     0
102
RTVSPropertyOp31
 70
     0
102
RTVSPropertyOp32
 70
     0
102
RTVSPropertyOp33
 70
     0
102
RTVSPropertyOp34
 70
     0
102
RTVSPropertyOp35
 70
     0
102
RTVSPropertyOp36
 70
     0
102
RTVSPropertyOp37
 70
     0
102
RTVSPropertyOp38
 70
     0
102
RTVSPropertyOp39
 70
     0
102
RTVSPropertyOp40
 70
     0
102
RTVSPropertyOp41
 70
     0
102
RTVSPropertyOp42
 70
     0
102
RTVSPropertyOp43
 70
     0
102
RTVSPropertyOp44
 70
     0
102
RTVSPropertyOp45
 70
     0
102
RTVSPropertyOp46
 70
     0
102
RTVSPropertyOp47
 70
     0
102
RTVSPropertyOp48
 70
     0
102
RTVSPropertyOp49
 70
     0
102
RTVSPropertyOp50
 70
     0
102
RTVSPropertyOp51
 70
     0
102
RTVSPropertyOp52
 70
     0
102
RTVSPropertyOp53
 70
     0
102
RTVSPropertyOp54
 70
     0
102
RTVSPropertyOp55
 70
     0
102
RTVSPropertyOp56
 70
     0
102
RTVSPropertyOp57
 70
     0
102
RTVSPost2010Prop28
280
     0
102
RTVSPost2010PropOp28
 70
     0
102
RTVSPost2010Prop29
280
     1
102
RTVSPost2010PropOp29
 70
     0
102
RTVSPost2010Prop30
280
     1
102
RTVSPost2010PropOp30
 70
     0
102
RTVSPost2010Prop31
280
     0
102
RTVSPost2010PropOp31
 70
     0
102
RTVSPost2010Prop32
280
     0
102
RTVSPost2010PropOp32
 70
     0
102
RTVSPost2010Prop33
280
     0
102
RTVSPost2010PropOp33
 70
     0
102
RTVSPost2010Prop34
280
     0
102
RTVSPost2010PropOp34
 70
     0
102
RTVSPost2010Prop35
280
     0
102
RTVSPost2010PropOp35
 70
     0
102
RTVSPost2010Prop36
280
     0
102
RTVSPost2010PropOp36
 70
     0
102
RTVSPost2010Prop37
 90
       50
102
RTVSPost2010PropOp37
 70
     0
102
RTVSPost2010Prop38
140
0.0
102
RTVSPost2010PropOp38
 70
     0
102
RTVSPost2010Prop39
140
1.0
102
RTVSPost2010PropOp39
 70
     0
102
RTVSPost2010Prop40
 90
        0
102
RTVSPost2010PropOp40
 70
     0
102
RTVSPost2010Prop41ColorIndex
 90
       18
102
RTVSPost2010Prop41ColorRGB
 90
        0
102
RTVSPost2010PropOp41
 70
     0
102
RTVSPost2010Prop42
 90
       50
102
RTVSPost2010PropOp42
 70
     0
102
RTVSPost2010Prop43
 90
        3
102
RTVSPost2010PropOp43
 70
     0
102
RTVSPost2010Prop44ColorIndex
 90
        5
102
RTVSPost2010Prop44ColorRGB
 90
      255
102
RTVSPost2010PropOp44
 70
     0
102
RTVSPost2010Prop45
280
     0
102
RTVSPost2010PropOp45
 70
     0
102
RTVSPost2010Prop46
 90
       50
102
RTVSPost2010PropOp46
 70
     0
102
RTVSPost2010Prop47
 90
       50
102
RTVSPost2010PropOp47
 70
     0
102
RTVSPost2010Prop48
 90
       50
102
RTVSPost2010PropOp48
 70
     0
102
RTVSPost2010Prop49
280
     0
102
RTVSPost2010PropOp49
 70
     0
102
RTVSPost2010Prop50
 90
       50
102
RTVSPost2010PropOp50
 70
     0
102
RTVSPost2010Prop51ColorIndex
 90
      256
102
RTVSPost2010Prop51ColorRGB
 90
-16777216
102
RTVSPost2010PropOp51
 70
     0
102
RTVSPost2010Prop52
140
1.0
102
RTVSPost2010PropOp52
 70
     0
102
RTVSPost2010Prop53
 90
        2
102
RTVSPost2010PropOp53
 70
     0
102
RTVSPost2010Prop54
  1
strokes_ogs.tif
102
RTVSPost2010PropOp54
 70
     0
102
RTVSPost2010Prop55
280
     0
102
RTVSPost2010PropOp55
 70
     0
102
RTVSPost2010Prop56
140
1.0
102
RTVSPost2010PropOp56
 70
     0
102
RTVSPost2010Prop57
140
1.0
102
RTVSPost2010PropOp57
 70
     0
  0
XRECORD
  5
395
102
{ACAD_REACTORS
330
394
102
}
330
394
100
AcDbXrecord
280
     1
102
RTVSPropertyOp0
 70
     1
102
RTVSPropertyOp1
 70
     1
102
RTVSPropertyOp2
 70
     1
102
RTVSPropertyOp3
 70
     1
102
RTVSPropertyOp4
 70
     1
102
RTVSPropertyOp5
 70
     1
102
RTVSPropertyOp6
 70
     1
102
RTVSPropertyOp7
 70
     1
102
RTVSPropertyOp8
 70
     1
102
RTVSPropertyOp9
 70
     1
102
RTVSPropertyOp10
 70
     1
102
RTVSPropertyOp11
 70
     1
102
RTVSPropertyOp12
 70
     1
102
RTVSPropertyOp13
 70
     1
102
RTVSPropertyOp14
 70
     1
102
RTVSPropertyOp15
 70
     1
102
RTVSPropertyOp16
 70
     1
102
RTVSPropertyOp17
 70
     1
102
RTVSPropertyOp18
 70
     1
102
RTVSPropertyOp19
 70
     1
102
RTVSPropertyOp20
 70
     1
102
RTVSPropertyOp21
 70
     1
102
RTVSPropertyOp22
 70
     1
102
RTVSPropertyOp23
 70
     1
102
RTVSPropertyOp24
 70
     1
102
RTVSPropertyOp25
 70
     1
102
RTVSPropertyOp26
 70
     1
102
RTVSPropertyOp27
 70
     1
102
RTVSPropertyOp28
 70
     1
102
RTVSPropertyOp29
 70
     1
102
RTVSPropertyOp30
 70
     1
102
RTVSPropertyOp31
 70
     1
102
RTVSPropertyOp32
 70
     1
102
RTVSPropertyOp33
 70
     1
102
RTVSPropertyOp34
 70
     1
102
RTVSPropertyOp35
 70
     1
102
RTVSPropertyOp36
 70
     1
102
RTVSPropertyOp37
 70
     1
102
RTVSPropertyOp38
 70
     1
102
RTVSPropertyOp39
 70
     1
102
RTVSPropertyOp40
 70
     1
102
RTVSPropertyOp41
 70
     1
102
RTVSPropertyOp42
 70
     1
102
RTVSPropertyOp43
 70
     1
102
RTVSPropertyOp44
 70
     1
102
RTVSPropertyOp45
 70
     1
102
RTVSPropertyOp46
 70
     1
102
RTVSPropertyOp47
 70
     1
102
RTVSPropertyOp48
 70
     1
102
RTVSPropertyOp49
 70
     1
102
RTVSPropertyOp50
 70
     1
102
RTVSPropertyOp51
 70
     0
102
RTVSPropertyOp52
 70
     0
102
RTVSPropertyOp53
 70
     1
102
RTVSPropertyOp54
 70
     1
102
RTVSPropertyOp55
 70
     1
102
RTVSPropertyOp56
 70
     1
102
RTVSPropertyOp57
 70
     1
102
RTVSPost2010Prop28
280
     0
102
RTVSPost2010PropOp28
 70
     1
102
RTVSPost2010Prop29
280
     1
102
RTVSPost2010PropOp29
 70
     1
102
RTVSPost2010Prop30
280
     1
102
RTVSPost2010PropOp30
 70
     1
102
RTVSPost2010Prop31
280
     0
102
RTVSPost2010PropOp31
 70
     1
102
RTVSPost2010Prop32
280
     0
102
RTVSPost2010PropOp32
 70
     1
102
RTVSPost2010Prop33
280
     0
102
RTVSPost2010PropOp33
 70
     1
102
RTVSPost2010Prop34
280
     0
102
RTVSPost2010PropOp34
 70
     1
102
RTVSPost2010Prop35
280
     0
102
RTVSPost2010PropOp35
 70
     1
102
RTVSPost2010Prop36
280
     0
102
RTVSPost2010PropOp36
 70
     1
102
RTVSPost2010Prop37
 90
       50
102
RTVSPost2010PropOp37
 70
     1
102
RTVSPost2010Prop38
140
0.0
102
RTVSPost2010PropOp38
 70
     1
102
RTVSPost2010Prop39
140
1.0
102
RTVSPost2010PropOp39
 70
     1
102
RTVSPost2010Prop40
 90
        0
102
RTVSPost2010PropOp40
 70
     1
102
RTVSPost2010Prop41ColorIndex
 90
       18
102
RTVSPost2010Prop41ColorRGB
 90
        0
102
RTVSPost2010PropOp41
 70
     1
102
RTVSPost2010Prop42
 90
       50
102
RTVSPost2010PropOp42
 70
     1
102
RTVSPost2010Prop43
 90
        3
102
RTVSPost2010PropOp43
 70
     1
102
RTVSPost2010Prop44ColorIndex
 90
        5
102
RTVSPost2010Prop44ColorRGB
 90
      255
102
RTVSPost2010PropOp44
 70
     1
102
RTVSPost2010Prop45
280
     0
102
RTVSPost2010PropOp45
 70
     1
102
RTVSPost2010Prop46
 90
       50
102
RTVSPost2010PropOp46
 70
     1
102
RTVSPost2010Prop47
 90
       50
102
RTVSPost2010PropOp47
 70
     1
102
RTVSPost2010Prop48
 90
       50
102
RTVSPost2010PropOp48
 70
     1
102
RTVSPost2010Prop49
280
     0
102
RTVSPost2010PropOp49
 70
     1
102
RTVSPost2010Prop50
 90
       50
102
RTVSPost2010PropOp50
 70
     1
102
RTVSPost2010Prop51ColorIndex
 90
      256
102
RTVSPost2010Prop51ColorRGB
 90
-16777216
102
RTVSPost2010PropOp51
 70
     0
102
RTVSPost2010Prop52
140
1.0
102
RTVSPost2010PropOp52
 70
     0
102
RTVSPost2010Prop53
 90
        2
102
RTVSPost2010PropOp53
 70
     1
102
RTVSPost2010Prop54
  1
strokes_ogs.tif
102
RTVSPost2010PropOp54
 70
     1
102
RTVSPost2010Prop55
280
     0
102
RTVSPost2010PropOp55
 70
     1
102
RTVSPost2010Prop56
140
1.0
102
RTVSPost2010PropOp56
 70
     1
102
RTVSPost2010Prop57
140
1.0
102
RTVSPost2010PropOp57
 70
     1
  0
XRECORD
  5
379
102
{ACAD_REACTORS
330
378
102
}
330
378
100
AcDbXrecord
280
     1
102
RTVSPropertyOp0
 70
     1
102
RTVSPropertyOp1
 70
     1
102
RTVSPropertyOp2
 70
     1
102
RTVSPropertyOp3
 70
     1
102
RTVSPropertyOp4
 70
     1
102
RTVSPropertyOp5
 70
     1
102
RTVSPropertyOp6
 70
     1
102
RTVSPropertyOp7
 70
     1
102
RTVSPropertyOp8
 70
     1
102
RTVSPropertyOp9
 70
     1
102
RTVSPropertyOp10
 70
     1
102
RTVSPropertyOp11
 70
     1
102
RTVSPropertyOp12
 70
     1
102
RTVSPropertyOp13
 70
     1
102
RTVSPropertyOp14
 70
     1
102
RTVSPropertyOp15
 70
     1
102
RTVSPropertyOp16
 70
     1
102
RTVSPropertyOp17
 70
     1
102
RTVSPropertyOp18
 70
     1
102
RTVSPropertyOp19
 70
     1
102
RTVSPropertyOp20
 70
     1
102
RTVSPropertyOp21
 70
     1
102
RTVSPropertyOp22
 70
     1
102
RTVSPropertyOp23
 70
     1
102
RTVSPropertyOp24
 70
     1
102
RTVSPropertyOp25
 70
     1
102
RTVSPropertyOp26
 70
     1
102
RTVSPropertyOp27
 70
     1
102
RTVSPropertyOp28
 70
     1
102
RTVSPropertyOp29
 70
     1
102
RTVSPropertyOp30
 70
     1
102
RTVSPropertyOp31
 70
     1
102
RTVSPropertyOp32
 70
     1
102
RTVSPropertyOp33
 70
     1
102
RTVSPropertyOp34
 70
     1
102
RTVSPropertyOp35
 70
     1
102
RTVSPropertyOp36
 70
     1
102
RTVSPropertyOp37
 70
     1
102
RTVSPropertyOp38
 70
     1
102
RTVSPropertyOp39
 70
     1
102
RTVSPropertyOp40
 70
     1
102
RTVSPropertyOp41
 70
     1
102
RTVSPropertyOp42
 70
     1
102
RTVSPropertyOp43
 70
     1
102
RTVSPropertyOp44
 70
     1
102
RTVSPropertyOp45
 70
     1
102
RTVSPropertyOp46
 70
     1
102
RTVSPropertyOp47
 70
     1
102
RTVSPropertyOp48
 70
     1
102
RTVSPropertyOp49
 70
     1
102
RTVSPropertyOp50
 70
     1
102
RTVSPropertyOp51
 70
     0
102
RTVSPropertyOp52
 70
     0
102
RTVSPropertyOp53
 70
     1
102
RTVSPropertyOp54
 70
     1
102
RTVSPropertyOp55
 70
     1
102
RTVSPropertyOp56
 70
     1
102
RTVSPropertyOp57
 70
     1
102
RTVSPost2010Prop28
280
     0
102
RTVSPost2010PropOp28
 70
     1
102
RTVSPost2010Prop29
280
     1
102
RTVSPost2010PropOp29
 70
     1
102
RTVSPost2010Prop30
280
     1
102
RTVSPost2010PropOp30
 70
     1
102
RTVSPost2010Prop31
280
     0
102
RTVSPost2010PropOp31
 70
     1
102
RTVSPost2010Prop32
280
     0
102
RTVSPost2010PropOp32
 70
     1
102
RTVSPost2010Prop33
280
     0
102
RTVSPost2010PropOp33
 70
     1
102
RTVSPost2010Prop34
280
     0
102
RTVSPost2010PropOp34
 70
     1
102
RTVSPost2010Prop35
280
     0
102
RTVSPost2010PropOp35
 70
     1
102
RTVSPost2010Prop36
280
     0
102
RTVSPost2010PropOp36
 70
     1
102
RTVSPost2010Prop37
 90
       50
102
RTVSPost2010PropOp37
 70
     1
102
RTVSPost2010Prop38
140
0.0
102
RTVSPost2010PropOp38
 70
     1
102
RTVSPost2010Prop39
140
1.0
102
RTVSPost2010PropOp39
 70
     1
102
RTVSPost2010Prop40
 90
        0
102
RTVSPost2010PropOp40
 70
     1
102
RTVSPost2010Prop41ColorIndex
 90
       18
102
RTVSPost2010Prop41ColorRGB
 90
        0
102
RTVSPost2010PropOp41
 70
     1
102
RTVSPost2010Prop42
 90
       50
102
RTVSPost2010PropOp42
 70
     1
102
RTVSPost2010Prop43
 90
        3
102
RTVSPost2010PropOp43
 70
     1
102
RTVSPost2010Prop44ColorIndex
 90
        5
102
RTVSPost2010Prop44ColorRGB
 90
      255
102
RTVSPost2010PropOp44
 70
     1
102
RTVSPost2010Prop45
280
     0
102
RTVSPost2010PropOp45
 70
     1
102
RTVSPost2010Prop46
 90
       50
102
RTVSPost2010PropOp46
 70
     1
102
RTVSPost2010Prop47
 90
       50
102
RTVSPost2010PropOp47
 70
     1
102
RTVSPost2010Prop48
 90
       50
102
RTVSPost2010PropOp48
 70
     1
102
RTVSPost2010Prop49
280
     0
102
RTVSPost2010PropOp49
 70
     1
102
RTVSPost2010Prop50
 90
       50
102
RTVSPost2010PropOp50
 70
     1
102
RTVSPost2010Prop51ColorIndex
 90
      256
102
RTVSPost2010Prop51ColorRGB
 90
-16777216
102
RTVSPost2010PropOp51
 70
     0
102
RTVSPost2010Prop52
140
1.0
102
RTVSPost2010PropOp52
 70
     0
102
RTVSPost2010Prop53
 90
        2
102
RTVSPost2010PropOp53
 70
     1
102
RTVSPost2010Prop54
  1
strokes_ogs.tif
102
RTVSPost2010PropOp54
 70
     1
102
RTVSPost2010Prop55
280
     0
102
RTVSPost2010PropOp55
 70
     1
102
RTVSPost2010Prop56
140
1.0
102
RTVSPost2010PropOp56
 70
     1
102
RTVSPost2010Prop57
140
1.0
102
RTVSPost2010PropOp57
 70
     1
  0
XRECORD
  5
37B
102
{ACAD_REACTORS
330
37A
102
}
330
37A
100
AcDbXrecord
280
     1
102
RTVSPropertyOp0
 70
     1
102
RTVSPropertyOp1
 70
     1
102
RTVSPropertyOp2
 70
     1
102
RTVSPropertyOp3
 70
     1
102
RTVSPropertyOp4
 70
     1
102
RTVSPropertyOp5
 70
     1
102
RTVSPropertyOp6
 70
     1
102
RTVSPropertyOp7
 70
     1
102
RTVSPropertyOp8
 70
     1
102
RTVSPropertyOp9
 70
     1
102
RTVSPropertyOp10
 70
     1
102
RTVSPropertyOp11
 70
     1
102
RTVSPropertyOp12
 70
     1
102
RTVSPropertyOp13
 70
     1
102
RTVSPropertyOp14
 70
     1
102
RTVSPropertyOp15
 70
     1
102
RTVSPropertyOp16
 70
     1
102
RTVSPropertyOp17
 70
     1
102
RTVSPropertyOp18
 70
     1
102
RTVSPropertyOp19
 70
     1
102
RTVSPropertyOp20
 70
     1
102
RTVSPropertyOp21
 70
     1
102
RTVSPropertyOp22
 70
     1
102
RTVSPropertyOp23
 70
     1
102
RTVSPropertyOp24
 70
     1
102
RTVSPropertyOp25
 70
     1
102
RTVSPropertyOp26
 70
     1
102
RTVSPropertyOp27
 70
     1
102
RTVSPropertyOp28
 70
     1
102
RTVSPropertyOp29
 70
     1
102
RTVSPropertyOp30
 70
     1
102
RTVSPropertyOp31
 70
     1
102
RTVSPropertyOp32
 70
     1
102
RTVSPropertyOp33
 70
     1
102
RTVSPropertyOp34
 70
     1
102
RTVSPropertyOp35
 70
     1
102
RTVSPropertyOp36
 70
     1
102
RTVSPropertyOp37
 70
     1
102
RTVSPropertyOp38
 70
     1
102
RTVSPropertyOp39
 70
     1
102
RTVSPropertyOp40
 70
     1
102
RTVSPropertyOp41
 70
     1
102
RTVSPropertyOp42
 70
     1
102
RTVSPropertyOp43
 70
     1
102
RTVSPropertyOp44
 70
     1
102
RTVSPropertyOp45
 70
     1
102
RTVSPropertyOp46
 70
     1
102
RTVSPropertyOp47
 70
     1
102
RTVSPropertyOp48
 70
     1
102
RTVSPropertyOp49
 70
     1
102
RTVSPropertyOp50
 70
     1
102
RTVSPropertyOp51
 70
     0
102
RTVSPropertyOp52
 70
     0
102
RTVSPropertyOp53
 70
     1
102
RTVSPropertyOp54
 70
     1
102
RTVSPropertyOp55
 70
     1
102
RTVSPropertyOp56
 70
     1
102
RTVSPropertyOp57
 70
     1
102
RTVSPost2010Prop28
280
     0
102
RTVSPost2010PropOp28
 70
     1
102
RTVSPost2010Prop29
280
     1
102
RTVSPost2010PropOp29
 70
     1
102
RTVSPost2010Prop30
280
     1
102
RTVSPost2010PropOp30
 70
     1
102
RTVSPost2010Prop31
280
     0
102
RTVSPost2010PropOp31
 70
     1
102
RTVSPost2010Prop32
280
     0
102
RTVSPost2010PropOp32
 70
     1
102
RTVSPost2010Prop33
280
     0
102
RTVSPost2010PropOp33
 70
     1
102
RTVSPost2010Prop34
280
     0
102
RTVSPost2010PropOp34
 70
     1
102
RTVSPost2010Prop35
280
     0
102
RTVSPost2010PropOp35
 70
     1
102
RTVSPost2010Prop36
280
     0
102
RTVSPost2010PropOp36
 70
     1
102
RTVSPost2010Prop37
 90
       50
102
RTVSPost2010PropOp37
 70
     1
102
RTVSPost2010Prop38
140
0.0
102
RTVSPost2010PropOp38
 70
     1
102
RTVSPost2010Prop39
140
1.0
102
RTVSPost2010PropOp39
 70
     1
102
RTVSPost2010Prop40
 90
        0
102
RTVSPost2010PropOp40
 70
     1
102
RTVSPost2010Prop41ColorIndex
 90
       18
102
RTVSPost2010Prop41ColorRGB
 90
        0
102
RTVSPost2010PropOp41
 70
     1
102
RTVSPost2010Prop42
 90
       50
102
RTVSPost2010PropOp42
 70
     1
102
RTVSPost2010Prop43
 90
        3
102
RTVSPost2010PropOp43
 70
     1
102
RTVSPost2010Prop44ColorIndex
 90
        5
102
RTVSPost2010Prop44ColorRGB
 90
      255
102
RTVSPost2010PropOp44
 70
     1
102
RTVSPost2010Prop45
280
     0
102
RTVSPost2010PropOp45
 70
     1
102
RTVSPost2010Prop46
 90
       50
102
RTVSPost2010PropOp46
 70
     1
102
RTVSPost2010Prop47
 90
       50
102
RTVSPost2010PropOp47
 70
     1
102
RTVSPost2010Prop48
 90
       50
102
RTVSPost2010PropOp48
 70
     1
102
RTVSPost2010Prop49
280
     0
102
RTVSPost2010PropOp49
 70
     1
102
RTVSPost2010Prop50
 90
       50
102
RTVSPost2010PropOp50
 70
     1
102
RTVSPost2010Prop51ColorIndex
 90
      256
102
RTVSPost2010Prop51ColorRGB
 90
-16777216
102
RTVSPost2010PropOp51
 70
     0
102
RTVSPost2010Prop52
140
1.0
102
RTVSPost2010PropOp52
 70
     0
102
RTVSPost2010Prop53
 90
        2
102
RTVSPost2010PropOp53
 70
     1
102
RTVSPost2010Prop54
  1
strokes_ogs.tif
102
RTVSPost2010PropOp54
 70
     1
102
RTVSPost2010Prop55
280
     0
102
RTVSPost2010PropOp55
 70
     1
102
RTVSPost2010Prop56
140
1.0
102
RTVSPost2010PropOp56
 70
     1
102
RTVSPost2010Prop57
140
1.0
102
RTVSPost2010PropOp57
 70
     1
  0
XRECORD
  5
37D
102
{ACAD_REACTORS
330
37C
102
}
330
37C
100
AcDbXrecord
280
     1
102
RTVSPropertyOp0
 70
     1
102
RTVSPropertyOp1
 70
     1
102
RTVSPropertyOp2
 70
     1
102
RTVSPropertyOp3
 70
     1
102
RTVSPropertyOp4
 70
     1
102
RTVSPropertyOp5
 70
     1
102
RTVSPropertyOp6
 70
     1
102
RTVSPropertyOp7
 70
     1
102
RTVSPropertyOp8
 70
     1
102
RTVSPropertyOp9
 70
     1
102
RTVSPropertyOp10
 70
     1
102
RTVSPropertyOp11
 70
     1
102
RTVSPropertyOp12
 70
     1
102
RTVSPropertyOp13
 70
     1
102
RTVSPropertyOp14
 70
     1
102
RTVSPropertyOp15
 70
     1
102
RTVSPropertyOp16
 70
     1
102
RTVSPropertyOp17
 70
     1
102
RTVSPropertyOp18
 70
     1
102
RTVSPropertyOp19
 70
     1
102
RTVSPropertyOp20
 70
     1
102
RTVSPropertyOp21
 70
     1
102
RTVSPropertyOp22
 70
     1
102
RTVSPropertyOp23
 70
     1
102
RTVSPropertyOp24
 70
     1
102
RTVSPropertyOp25
 70
     1
102
RTVSPropertyOp26
 70
     1
102
RTVSPropertyOp27
 70
     1
102
RTVSPropertyOp28
 70
     1
102
RTVSPropertyOp29
 70
     1
102
RTVSPropertyOp30
 70
     1
102
RTVSPropertyOp31
 70
     1
102
RTVSPropertyOp32
 70
     1
102
RTVSPropertyOp33
 70
     1
102
RTVSPropertyOp34
 70
     1
102
RTVSPropertyOp35
 70
     1
102
RTVSPropertyOp36
 70
     1
102
RTVSPropertyOp37
 70
     1
102
RTVSPropertyOp38
 70
     1
102
RTVSPropertyOp39
 70
     1
102
RTVSPropertyOp40
 70
     1
102
RTVSPropertyOp41
 70
     1
102
RTVSPropertyOp42
 70
     1
102
RTVSPropertyOp43
 70
     1
102
RTVSPropertyOp44
 70
     1
102
RTVSPropertyOp45
 70
     1
102
RTVSPropertyOp46
 70
     1
102
RTVSPropertyOp47
 70
     1
102
RTVSPropertyOp48
 70
     1
102
RTVSPropertyOp49
 70
     1
102
RTVSPropertyOp50
 70
     1
102
RTVSPropertyOp51
 70
     0
102
RTVSPropertyOp52
 70
     0
102
RTVSPropertyOp53
 70
     1
102
RTVSPropertyOp54
 70
     1
102
RTVSPropertyOp55
 70
     1
102
RTVSPropertyOp56
 70
     1
102
RTVSPropertyOp57
 70
     1
102
RTVSPost2010Prop28
280
     0
102
RTVSPost2010PropOp28
 70
     1
102
RTVSPost2010Prop29
280
     1
102
RTVSPost2010PropOp29
 70
     1
102
RTVSPost2010Prop30
280
     1
102
RTVSPost2010PropOp30
 70
     1
102
RTVSPost2010Prop31
280
     0
102
RTVSPost2010PropOp31
 70
     1
102
RTVSPost2010Prop32
280
     0
102
RTVSPost2010PropOp32
 70
     1
102
RTVSPost2010Prop33
280
     0
102
RTVSPost2010PropOp33
 70
     1
102
RTVSPost2010Prop34
280
     0
102
RTVSPost2010PropOp34
 70
     1
102
RTVSPost2010Prop35
280
     0
102
RTVSPost2010PropOp35
 70
     1
102
RTVSPost2010Prop36
280
     0
102
RTVSPost2010PropOp36
 70
     1
102
RTVSPost2010Prop37
 90
       50
102
RTVSPost2010PropOp37
 70
     1
102
RTVSPost2010Prop38
140
0.0
102
RTVSPost2010PropOp38
 70
     1
102
RTVSPost2010Prop39
140
1.0
102
RTVSPost2010PropOp39
 70
     1
102
RTVSPost2010Prop40
 90
        0
102
RTVSPost2010PropOp40
 70
     1
102
RTVSPost2010Prop41ColorIndex
 90
       18
102
RTVSPost2010Prop41ColorRGB
 90
        0
102
RTVSPost2010PropOp41
 70
     1
102
RTVSPost2010Prop42
 90
       50
102
RTVSPost2010PropOp42
 70
     1
102
RTVSPost2010Prop43
 90
        3
102
RTVSPost2010PropOp43
 70
     1
102
RTVSPost2010Prop44ColorIndex
 90
        5
102
RTVSPost2010Prop44ColorRGB
 90
      255
102
RTVSPost2010PropOp44
 70
     1
102
RTVSPost2010Prop45
280
     0
102
RTVSPost2010PropOp45
 70
     1
102
RTVSPost2010Prop46
 90
       50
102
RTVSPost2010PropOp46
 70
     1
102
RTVSPost2010Prop47
 90
       50
102
RTVSPost2010PropOp47
 70
     1
102
RTVSPost2010Prop48
 90
       50
102
RTVSPost2010PropOp48
 70
     1
102
RTVSPost2010Prop49
280
     0
102
RTVSPost2010PropOp49
 70
     1
102
RTVSPost2010Prop50
 90
       50
102
RTVSPost2010PropOp50
 70
     1
102
RTVSPost2010Prop51ColorIndex
 90
      256
102
RTVSPost2010Prop51ColorRGB
 90
-16777216
102
RTVSPost2010PropOp51
 70
     0
102
RTVSPost2010Prop52
140
1.0
102
RTVSPost2010PropOp52
 70
     0
102
RTVSPost2010Prop53
 90
        2
102
RTVSPost2010PropOp53
 70
     1
102
RTVSPost2010Prop54
  1
strokes_ogs.tif
102
RTVSPost2010PropOp54
 70
     1
102
RTVSPost2010Prop55
280
     0
102
RTVSPost2010PropOp55
 70
     1
102
RTVSPost2010Prop56
140
1.0
102
RTVSPost2010PropOp56
 70
     1
102
RTVSPost2010Prop57
140
1.0
102
RTVSPost2010PropOp57
 70
     1
  0
XRECORD
  5
37F
102
{ACAD_REACTORS
330
37E
102
}
330
37E
100
AcDbXrecord
280
     1
102
RTVSPropertyOp0
 70
     1
102
RTVSPropertyOp1
 70
     1
102
RTVSPropertyOp2
 70
     1
102
RTVSPropertyOp3
 70
     1
102
RTVSPropertyOp4
 70
     1
102
RTVSPropertyOp5
 70
     1
102
RTVSPropertyOp6
 70
     1
102
RTVSPropertyOp7
 70
     1
102
RTVSPropertyOp8
 70
     1
102
RTVSPropertyOp9
 70
     1
102
RTVSPropertyOp10
 70
     1
102
RTVSPropertyOp11
 70
     1
102
RTVSPropertyOp12
 70
     1
102
RTVSPropertyOp13
 70
     1
102
RTVSPropertyOp14
 70
     1
102
RTVSPropertyOp15
 70
     1
102
RTVSPropertyOp16
 70
     1
102
RTVSPropertyOp17
 70
     1
102
RTVSPropertyOp18
 70
     1
102
RTVSPropertyOp19
 70
     1
102
RTVSPropertyOp20
 70
     1
102
RTVSPropertyOp21
 70
     1
102
RTVSPropertyOp22
 70
     1
102
RTVSPropertyOp23
 70
     1
102
RTVSPropertyOp24
 70
     1
102
RTVSPropertyOp25
 70
     1
102
RTVSPropertyOp26
 70
     1
102
RTVSPropertyOp27
 70
     1
102
RTVSPropertyOp28
 70
     1
102
RTVSPropertyOp29
 70
     1
102
RTVSPropertyOp30
 70
     1
102
RTVSPropertyOp31
 70
     1
102
RTVSPropertyOp32
 70
     1
102
RTVSPropertyOp33
 70
     1
102
RTVSPropertyOp34
 70
     1
102
RTVSPropertyOp35
 70
     1
102
RTVSPropertyOp36
 70
     1
102
RTVSPropertyOp37
 70
     1
102
RTVSPropertyOp38
 70
     1
102
RTVSPropertyOp39
 70
     1
102
RTVSPropertyOp40
 70
     1
102
RTVSPropertyOp41
 70
     1
102
RTVSPropertyOp42
 70
     1
102
RTVSPropertyOp43
 70
     1
102
RTVSPropertyOp44
 70
     1
102
RTVSPropertyOp45
 70
     1
102
RTVSPropertyOp46
 70
     1
102
RTVSPropertyOp47
 70
     1
102
RTVSPropertyOp48
 70
     1
102
RTVSPropertyOp49
 70
     1
102
RTVSPropertyOp50
 70
     1
102
RTVSPropertyOp51
 70
     0
102
RTVSPropertyOp52
 70
     0
102
RTVSPropertyOp53
 70
     1
102
RTVSPropertyOp54
 70
     1
102
RTVSPropertyOp55
 70
     1
102
RTVSPropertyOp56
 70
     1
102
RTVSPropertyOp57
 70
     1
102
RTVSPost2010Prop28
280
     0
102
RTVSPost2010PropOp28
 70
     1
102
RTVSPost2010Prop29
280
     1
102
RTVSPost2010PropOp29
 70
     1
102
RTVSPost2010Prop30
280
     1
102
RTVSPost2010PropOp30
 70
     1
102
RTVSPost2010Prop31
280
     0
102
RTVSPost2010PropOp31
 70
     1
102
RTVSPost2010Prop32
280
     0
102
RTVSPost2010PropOp32
 70
     1
102
RTVSPost2010Prop33
280
     0
102
RTVSPost2010PropOp33
 70
     1
102
RTVSPost2010Prop34
280
     0
102
RTVSPost2010PropOp34
 70
     1
102
RTVSPost2010Prop35
280
     0
102
RTVSPost2010PropOp35
 70
     1
102
RTVSPost2010Prop36
280
     0
102
RTVSPost2010PropOp36
 70
     1
102
RTVSPost2010Prop37
 90
       50
102
RTVSPost2010PropOp37
 70
     1
102
RTVSPost2010Prop38
140
0.0
102
RTVSPost2010PropOp38
 70
     1
102
RTVSPost2010Prop39
140
1.0
102
RTVSPost2010PropOp39
 70
     1
102
RTVSPost2010Prop40
 90
        0
102
RTVSPost2010PropOp40
 70
     1
102
RTVSPost2010Prop41ColorIndex
 90
       18
102
RTVSPost2010Prop41ColorRGB
 90
        0
102
RTVSPost2010PropOp41
 70
     1
102
RTVSPost2010Prop42
 90
       50
102
RTVSPost2010PropOp42
 70
     1
102
RTVSPost2010Prop43
 90
        3
102
RTVSPost2010PropOp43
 70
     1
102
RTVSPost2010Prop44ColorIndex
 90
        5
102
RTVSPost2010Prop44ColorRGB
 90
      255
102
RTVSPost2010PropOp44
 70
     1
102
RTVSPost2010Prop45
280
     0
102
RTVSPost2010PropOp45
 70
     1
102
RTVSPost2010Prop46
 90
       50
102
RTVSPost2010PropOp46
 70
     1
102
RTVSPost2010Prop47
 90
       50
102
RTVSPost2010PropOp47
 70
     1
102
RTVSPost2010Prop48
 90
       50
102
RTVSPost2010PropOp48
 70
     1
102
RTVSPost2010Prop49
280
     0
102
RTVSPost2010PropOp49
 70
     1
102
RTVSPost2010Prop50
 90
       50
102
RTVSPost2010PropOp50
 70
     1
102
RTVSPost2010Prop51ColorIndex
 90
      256
102
RTVSPost2010Prop51ColorRGB
 90
-16777216
102
RTVSPost2010PropOp51
 70
     0
102
RTVSPost2010Prop52
140
1.0
102
RTVSPost2010PropOp52
 70
     0
102
RTVSPost2010Prop53
 90
        2
102
RTVSPost2010PropOp53
 70
     1
102
RTVSPost2010Prop54
  1
strokes_ogs.tif
102
RTVSPost2010PropOp54
 70
     1
102
RTVSPost2010Prop55
280
     0
102
RTVSPost2010PropOp55
 70
     1
102
RTVSPost2010Prop56
140
1.0
102
RTVSPost2010PropOp56
 70
     1
102
RTVSPost2010Prop57
140
1.0
102
RTVSPost2010PropOp57
 70
     1
  0
XRECORD
  5
385
102
{ACAD_REACTORS
330
384
102
}
330
384
100
AcDbXrecord
280
     1
102
RTVSPropertyOp0
 70
     1
102
RTVSPropertyOp1
 70
     1
102
RTVSPropertyOp2
 70
     1
102
RTVSPropertyOp3
 70
     1
102
RTVSPropertyOp4
 70
     1
102
RTVSPropertyOp5
 70
     1
102
RTVSPropertyOp6
 70
     1
102
RTVSPropertyOp7
 70
     1
102
RTVSPropertyOp8
 70
     1
102
RTVSPropertyOp9
 70
     1
102
RTVSPropertyOp10
 70
     1
102
RTVSPropertyOp11
 70
     1
102
RTVSPropertyOp12
 70
     1
102
RTVSPropertyOp13
 70
     1
102
RTVSPropertyOp14
 70
     1
102
RTVSPropertyOp15
 70
     1
102
RTVSPropertyOp16
 70
     1
102
RTVSPropertyOp17
 70
     1
102
RTVSPropertyOp18
 70
     1
102
RTVSPropertyOp19
 70
     1
102
RTVSPropertyOp20
 70
     1
102
RTVSPropertyOp21
 70
     1
102
RTVSPropertyOp22
 70
     1
102
RTVSPropertyOp23
 70
     1
102
RTVSPropertyOp24
 70
     1
102
RTVSPropertyOp25
 70
     1
102
RTVSPropertyOp26
 70
     1
102
RTVSPropertyOp27
 70
     1
102
RTVSPropertyOp28
 70
     1
102
RTVSPropertyOp29
 70
     1
102
RTVSPropertyOp30
 70
     1
102
RTVSPropertyOp31
 70
     1
102
RTVSPropertyOp32
 70
     1
102
RTVSPropertyOp33
 70
     1
102
RTVSPropertyOp34
 70
     1
102
RTVSPropertyOp35
 70
     1
102
RTVSPropertyOp36
 70
     1
102
RTVSPropertyOp37
 70
     1
102
RTVSPropertyOp38
 70
     1
102
RTVSPropertyOp39
 70
     1
102
RTVSPropertyOp40
 70
     1
102
RTVSPropertyOp41
 70
     1
102
RTVSPropertyOp42
 70
     1
102
RTVSPropertyOp43
 70
     1
102
RTVSPropertyOp44
 70
     1
102
RTVSPropertyOp45
 70
     1
102
RTVSPropertyOp46
 70
     1
102
RTVSPropertyOp47
 70
     1
102
RTVSPropertyOp48
 70
     1
102
RTVSPropertyOp49
 70
     1
102
RTVSPropertyOp50
 70
     1
102
RTVSPropertyOp51
 70
     0
102
RTVSPropertyOp52
 70
     0
102
RTVSPropertyOp53
 70
     1
102
RTVSPropertyOp54
 70
     1
102
RTVSPropertyOp55
 70
     1
102
RTVSPropertyOp56
 70
     1
102
RTVSPropertyOp57
 70
     1
102
RTVSPost2010Prop28
280
     0
102
RTVSPost2010PropOp28
 70
     1
102
RTVSPost2010Prop29
280
     1
102
RTVSPost2010PropOp29
 70
     1
102
RTVSPost2010Prop30
280
     1
102
RTVSPost2010PropOp30
 70
     1
102
RTVSPost2010Prop31
280
     0
102
RTVSPost2010PropOp31
 70
     1
102
RTVSPost2010Prop32
280
     0
102
RTVSPost2010PropOp32
 70
     1
102
RTVSPost2010Prop33
280
     0
102
RTVSPost2010PropOp33
 70
     1
102
RTVSPost2010Prop34
280
     0
102
RTVSPost2010PropOp34
 70
     1
102
RTVSPost2010Prop35
280
     0
102
RTVSPost2010PropOp35
 70
     1
102
RTVSPost2010Prop36
280
     0
102
RTVSPost2010PropOp36
 70
     1
102
RTVSPost2010Prop37
 90
       50
102
RTVSPost2010PropOp37
 70
     1
102
RTVSPost2010Prop38
140
0.0
102
RTVSPost2010PropOp38
 70
     1
102
RTVSPost2010Prop39
140
1.0
102
RTVSPost2010PropOp39
 70
     1
102
RTVSPost2010Prop40
 90
        0
102
RTVSPost2010PropOp40
 70
     1
102
RTVSPost2010Prop41ColorIndex
 90
       18
102
RTVSPost2010Prop41ColorRGB
 90
        0
102
RTVSPost2010PropOp41
 70
     1
102
RTVSPost2010Prop42
 90
       50
102
RTVSPost2010PropOp42
 70
     1
102
RTVSPost2010Prop43
 90
        3
102
RTVSPost2010PropOp43
 70
     1
102
RTVSPost2010Prop44ColorIndex
 90
        5
102
RTVSPost2010Prop44ColorRGB
 90
      255
102
RTVSPost2010PropOp44
 70
     1
102
RTVSPost2010Prop45
280
     0
102
RTVSPost2010PropOp45
 70
     1
102
RTVSPost2010Prop46
 90
       50
102
RTVSPost2010PropOp46
 70
     1
102
RTVSPost2010Prop47
 90
       50
102
RTVSPost2010PropOp47
 70
     1
102
RTVSPost2010Prop48
 90
       50
102
RTVSPost2010PropOp48
 70
     1
102
RTVSPost2010Prop49
280
     0
102
RTVSPost2010PropOp49
 70
     1
102
RTVSPost2010Prop50
 90
       50
102
RTVSPost2010PropOp50
 70
     1
102
RTVSPost2010Prop51ColorIndex
 90
      256
102
RTVSPost2010Prop51ColorRGB
 90
-16777216
102
RTVSPost2010PropOp51
 70
     0
102
RTVSPost2010Prop52
140
1.0
102
RTVSPost2010PropOp52
 70
     0
102
RTVSPost2010Prop53
 90
        2
102
RTVSPost2010PropOp53
 70
     1
102
RTVSPost2010Prop54
  1
strokes_ogs.tif
102
RTVSPost2010PropOp54
 70
     1
102
RTVSPost2010Prop55
280
     0
102
RTVSPost2010PropOp55
 70
     1
102
RTVSPost2010Prop56
140
1.0
102
RTVSPost2010PropOp56
 70
     1
102
RTVSPost2010Prop57
140
1.0
102
RTVSPost2010PropOp57
 70
     1
  0
XRECORD
  5
399
102
{ACAD_REACTORS
330
398
102
}
330
398
100
AcDbXrecord
280
     1
102
RTVSPropertyOp0
 70
     0
102
RTVSPropertyOp1
 70
     0
102
RTVSPropertyOp2
 70
     0
102
RTVSPropertyOp3
 70
     0
102
RTVSPropertyOp4
 70
     0
102
RTVSPropertyOp5
 70
     0
102
RTVSPropertyOp6
 70
     0
102
RTVSPropertyOp7
 70
     0
102
RTVSPropertyOp8
 70
     0
102
RTVSPropertyOp9
 70
     0
102
RTVSPropertyOp10
 70
     0
102
RTVSPropertyOp11
 70
     0
102
RTVSPropertyOp12
 70
     0
102
RTVSPropertyOp13
 70
     0
102
RTVSPropertyOp14
 70
     2
102
RTVSPropertyOp15
 70
     0
102
RTVSPropertyOp16
 70
     0
102
RTVSPropertyOp17
 70
     0
102
RTVSPropertyOp18
 70
     0
102
RTVSPropertyOp19
 70
     0
102
RTVSPropertyOp20
 70
     0
102
RTVSPropertyOp21
 70
     0
102
RTVSPropertyOp22
 70
     0
102
RTVSPropertyOp23
 70
     0
102
RTVSPropertyOp24
 70
     0
102
RTVSPropertyOp25
 70
     0
102
RTVSPropertyOp26
 70
     0
102
RTVSPropertyOp27
 70
     0
102
RTVSPropertyOp28
 70
     0
102
RTVSPropertyOp29
 70
     0
102
RTVSPropertyOp30
 70
     0
102
RTVSPropertyOp31
 70
     0
102
RTVSPropertyOp32
 70
     0
102
RTVSPropertyOp33
 70
     0
102
RTVSPropertyOp34
 70
     0
102
RTVSPropertyOp35
 70
     0
102
RTVSPropertyOp36
 70
     0
102
RTVSPropertyOp37
 70
     0
102
RTVSPropertyOp38
 70
     0
102
RTVSPropertyOp39
 70
     0
102
RTVSPropertyOp40
 70
     0
102
RTVSPropertyOp41
 70
     0
102
RTVSPropertyOp42
 70
     0
102
RTVSPropertyOp43
 70
     0
102
RTVSPropertyOp44
 70
     0
102
RTVSPropertyOp45
 70
     0
102
RTVSPropertyOp46
 70
     0
102
RTVSPropertyOp47
 70
     0
102
RTVSPropertyOp48
 70
     0
102
RTVSPropertyOp49
 70
     0
102
RTVSPropertyOp50
 70
     0
102
RTVSPropertyOp51
 70
     0
102
RTVSPropertyOp52
 70
     0
102
RTVSPropertyOp53
 70
     0
102
RTVSPropertyOp54
 70
     0
102
RTVSPropertyOp55
 70
     0
102
RTVSPropertyOp56
 70
     0
102
RTVSPropertyOp57
 70
     0
102
RTVSPost2010Prop28
280
     0
102
RTVSPost2010PropOp28
 70
     0
102
RTVSPost2010Prop29
280
     1
102
RTVSPost2010PropOp29
 70
     0
102
RTVSPost2010Prop30
280
     1
102
RTVSPost2010PropOp30
 70
     0
102
RTVSPost2010Prop31
280
     0
102
RTVSPost2010PropOp31
 70
     0
102
RTVSPost2010Prop32
280
     0
102
RTVSPost2010PropOp32
 70
     0
102
RTVSPost2010Prop33
280
     0
102
RTVSPost2010PropOp33
 70
     0
102
RTVSPost2010Prop34
280
     0
102
RTVSPost2010PropOp34
 70
     0
102
RTVSPost2010Prop35
280
     0
102
RTVSPost2010PropOp35
 70
     0
102
RTVSPost2010Prop36
280
     0
102
RTVSPost2010PropOp36
 70
     0
102
RTVSPost2010Prop37
 90
       50
102
RTVSPost2010PropOp37
 70
     0
102
RTVSPost2010Prop38
140
0.0
102
RTVSPost2010PropOp38
 70
     0
102
RTVSPost2010Prop39
140
1.0
102
RTVSPost2010PropOp39
 70
     0
102
RTVSPost2010Prop40
 90
        0
102
RTVSPost2010PropOp40
 70
     0
102
RTVSPost2010Prop41ColorIndex
 90
       18
102
RTVSPost2010Prop41ColorRGB
 90
        0
102
RTVSPost2010PropOp41
 70
     0
102
RTVSPost2010Prop42
 90
       50
102
RTVSPost2010PropOp42
 70
     0
102
RTVSPost2010Prop43
 90
        3
102
RTVSPost2010PropOp43
 70
     0
102
RTVSPost2010Prop44ColorIndex
 90
        5
102
RTVSPost2010Prop44ColorRGB
 90
      255
102
RTVSPost2010PropOp44
 70
     0
102
RTVSPost2010Prop45
280
     0
102
RTVSPost2010PropOp45
 70
     0
102
RTVSPost2010Prop46
 90
       50
102
RTVSPost2010PropOp46
 70
     0
102
RTVSPost2010Prop47
 90
       50
102
RTVSPost2010PropOp47
 70
     0
102
RTVSPost2010Prop48
 90
       50
102
RTVSPost2010PropOp48
 70
     0
102
RTVSPost2010Prop49
280
     0
102
RTVSPost2010PropOp49
 70
     0
102
RTVSPost2010Prop50
 90
       50
102
RTVSPost2010PropOp50
 70
     0
102
RTVSPost2010Prop51ColorIndex
 90
      256
102
RTVSPost2010Prop51ColorRGB
 90
-16777216
102
RTVSPost2010PropOp51
 70
     0
102
RTVSPost2010Prop52
140
1.0
102
RTVSPost2010PropOp52
 70
     0
102
RTVSPost2010Prop53
 90
        2
102
RTVSPost2010PropOp53
 70
     0
102
RTVSPost2010Prop54
  1
strokes_ogs.tif
102
RTVSPost2010PropOp54
 70
     0
102
RTVSPost2010Prop55
280
     0
102
RTVSPost2010PropOp55
 70
     0
102
RTVSPost2010Prop56
140
1.0
102
RTVSPost2010PropOp56
 70
     0
102
RTVSPost2010Prop57
140
1.0
102
RTVSPost2010PropOp57
 70
     0
  0
XRECORD
  5
393
102
{ACAD_REACTORS
330
392
102
}
330
392
100
AcDbXrecord
280
     1
102
RTVSPropertyOp0
 70
     1
102
RTVSPropertyOp1
 70
     1
102
RTVSPropertyOp2
 70
     1
102
RTVSPropertyOp3
 70
     1
102
RTVSPropertyOp4
 70
     1
102
RTVSPropertyOp5
 70
     1
102
RTVSPropertyOp6
 70
     1
102
RTVSPropertyOp7
 70
     1
102
RTVSPropertyOp8
 70
     1
102
RTVSPropertyOp9
 70
     1
102
RTVSPropertyOp10
 70
     1
102
RTVSPropertyOp11
 70
     1
102
RTVSPropertyOp12
 70
     1
102
RTVSPropertyOp13
 70
     1
102
RTVSPropertyOp14
 70
     1
102
RTVSPropertyOp15
 70
     1
102
RTVSPropertyOp16
 70
     1
102
RTVSPropertyOp17
 70
     1
102
RTVSPropertyOp18
 70
     1
102
RTVSPropertyOp19
 70
     1
102
RTVSPropertyOp20
 70
     1
102
RTVSPropertyOp21
 70
     1
102
RTVSPropertyOp22
 70
     1
102
RTVSPropertyOp23
 70
     1
102
RTVSPropertyOp24
 70
     1
102
RTVSPropertyOp25
 70
     1
102
RTVSPropertyOp26
 70
     1
102
RTVSPropertyOp27
 70
     1
102
RTVSPropertyOp28
 70
     1
102
RTVSPropertyOp29
 70
     1
102
RTVSPropertyOp30
 70
     1
102
RTVSPropertyOp31
 70
     1
102
RTVSPropertyOp32
 70
     1
102
RTVSPropertyOp33
 70
     1
102
RTVSPropertyOp34
 70
     1
102
RTVSPropertyOp35
 70
     1
102
RTVSPropertyOp36
 70
     1
102
RTVSPropertyOp37
 70
     1
102
RTVSPropertyOp38
 70
     1
102
RTVSPropertyOp39
 70
     1
102
RTVSPropertyOp40
 70
     1
102
RTVSPropertyOp41
 70
     1
102
RTVSPropertyOp42
 70
     1
102
RTVSPropertyOp43
 70
     1
102
RTVSPropertyOp44
 70
     1
102
RTVSPropertyOp45
 70
     1
102
RTVSPropertyOp46
 70
     1
102
RTVSPropertyOp47
 70
     1
102
RTVSPropertyOp48
 70
     1
102
RTVSPropertyOp49
 70
     1
102
RTVSPropertyOp50
 70
     1
102
RTVSPropertyOp51
 70
     0
102
RTVSPropertyOp52
 70
     0
102
RTVSPropertyOp53
 70
     1
102
RTVSPropertyOp54
 70
     1
102
RTVSPropertyOp55
 70
     1
102
RTVSPropertyOp56
 70
     1
102
RTVSPropertyOp57
 70
     1
102
RTVSPost2010Prop28
280
     0
102
RTVSPost2010PropOp28
 70
     1
102
RTVSPost2010Prop29
280
     1
102
RTVSPost2010PropOp29
 70
     1
102
RTVSPost2010Prop30
280
     1
102
RTVSPost2010PropOp30
 70
     1
102
RTVSPost2010Prop31
280
     0
102
RTVSPost2010PropOp31
 70
     1
102
RTVSPost2010Prop32
280
     0
102
RTVSPost2010PropOp32
 70
     1
102
RTVSPost2010Prop33
280
     0
102
RTVSPost2010PropOp33
 70
     1
102
RTVSPost2010Prop34
280
     0
102
RTVSPost2010PropOp34
 70
     1
102
RTVSPost2010Prop35
280
     0
102
RTVSPost2010PropOp35
 70
     1
102
RTVSPost2010Prop36
280
     0
102
RTVSPost2010PropOp36
 70
     1
102
RTVSPost2010Prop37
 90
       50
102
RTVSPost2010PropOp37
 70
     1
102
RTVSPost2010Prop38
140
0.0
102
RTVSPost2010PropOp38
 70
     1
102
RTVSPost2010Prop39
140
1.0
102
RTVSPost2010PropOp39
 70
     1
102
RTVSPost2010Prop40
 90
        0
102
RTVSPost2010PropOp40
 70
     1
102
RTVSPost2010Prop41ColorIndex
 90
       18
102
RTVSPost2010Prop41ColorRGB
 90
        0
102
RTVSPost2010PropOp41
 70
     1
102
RTVSPost2010Prop42
 90
       50
102
RTVSPost2010PropOp42
 70
     1
102
RTVSPost2010Prop43
 90
        3
102
RTVSPost2010PropOp43
 70
     1
102
RTVSPost2010Prop44ColorIndex
 90
        5
102
RTVSPost2010Prop44ColorRGB
 90
      255
102
RTVSPost2010PropOp44
 70
     1
102
RTVSPost2010Prop45
280
     0
102
RTVSPost2010PropOp45
 70
     1
102
RTVSPost2010Prop46
 90
       50
102
RTVSPost2010PropOp46
 70
     1
102
RTVSPost2010Prop47
 90
       50
102
RTVSPost2010PropOp47
 70
     1
102
RTVSPost2010Prop48
 90
       50
102
RTVSPost2010PropOp48
 70
     1
102
RTVSPost2010Prop49
280
     0
102
RTVSPost2010PropOp49
 70
     1
102
RTVSPost2010Prop50
 90
       50
102
RTVSPost2010PropOp50
 70
     1
102
RTVSPost2010Prop51ColorIndex
 90
      256
102
RTVSPost2010Prop51ColorRGB
 90
-16777216
102
RTVSPost2010PropOp51
 70
     0
102
RTVSPost2010Prop52
140
1.0
102
RTVSPost2010PropOp52
 70
     0
102
RTVSPost2010Prop53
 90
        2
102
RTVSPost2010PropOp53
 70
     1
102
RTVSPost2010Prop54
  1
strokes_ogs.tif
102
RTVSPost2010PropOp54
 70
     1
102
RTVSPost2010Prop55
280
     0
102
RTVSPost2010PropOp55
 70
     1
102
RTVSPost2010Prop56
140
1.0
102
RTVSPost2010PropOp56
 70
     1
102
RTVSPost2010Prop57
140
1.0
102
RTVSPost2010PropOp57
 70
     1
  0
XRECORD
  5
39B
102
{ACAD_REACTORS
330
39A
102
}
330
39A
100
AcDbXrecord
280
     1
102
RTVSPropertyOp0
 70
     0
102
RTVSPropertyOp1
 70
     0
102
RTVSPropertyOp2
 70
     0
102
RTVSPropertyOp3
 70
     0
102
RTVSPropertyOp4
 70
     0
102
RTVSPropertyOp5
 70
     0
102
RTVSPropertyOp6
 70
     0
102
RTVSPropertyOp7
 70
     0
102
RTVSPropertyOp8
 70
     0
102
RTVSPropertyOp9
 70
     0
102
RTVSPropertyOp10
 70
     0
102
RTVSPropertyOp11
 70
     0
102
RTVSPropertyOp12
 70
     0
102
RTVSPropertyOp13
 70
     0
102
RTVSPropertyOp14
 70
     2
102
RTVSPropertyOp15
 70
     0
102
RTVSPropertyOp16
 70
     0
102
RTVSPropertyOp17
 70
     0
102
RTVSPropertyOp18
 70
     0
102
RTVSPropertyOp19
 70
     0
102
RTVSPropertyOp20
 70
     0
102
RTVSPropertyOp21
 70
     0
102
RTVSPropertyOp22
 70
     0
102
RTVSPropertyOp23
 70
     0
102
RTVSPropertyOp24
 70
     0
102
RTVSPropertyOp25
 70
     0
102
RTVSPropertyOp26
 70
     0
102
RTVSPropertyOp27
 70
     0
102
RTVSPropertyOp28
 70
     0
102
RTVSPropertyOp29
 70
     0
102
RTVSPropertyOp30
 70
     0
102
RTVSPropertyOp31
 70
     0
102
RTVSPropertyOp32
 70
     0
102
RTVSPropertyOp33
 70
     0
102
RTVSPropertyOp34
 70
     0
102
RTVSPropertyOp35
 70
     0
102
RTVSPropertyOp36
 70
     0
102
RTVSPropertyOp37
 70
     0
102
RTVSPropertyOp38
 70
     0
102
RTVSPropertyOp39
 70
     0
102
RTVSPropertyOp40
 70
     0
102
RTVSPropertyOp41
 70
     0
102
RTVSPropertyOp42
 70
     0
102
RTVSPropertyOp43
 70
     0
102
RTVSPropertyOp44
 70
     0
102
RTVSPropertyOp45
 70
     0
102
RTVSPropertyOp46
 70
     0
102
RTVSPropertyOp47
 70
     0
102
RTVSPropertyOp48
 70
     0
102
RTVSPropertyOp49
 70
     0
102
RTVSPropertyOp50
 70
     0
102
RTVSPropertyOp51
 70
     0
102
RTVSPropertyOp52
 70
     0
102
RTVSPropertyOp53
 70
     0
102
RTVSPropertyOp54
 70
     0
102
RTVSPropertyOp55
 70
     0
102
RTVSPropertyOp56
 70
     0
102
RTVSPropertyOp57
 70
     0
102
RTVSPost2010Prop28
280
     0
102
RTVSPost2010PropOp28
 70
     0
102
RTVSPost2010Prop29
280
     1
102
RTVSPost2010PropOp29
 70
     0
102
RTVSPost2010Prop30
280
     1
102
RTVSPost2010PropOp30
 70
     0
102
RTVSPost2010Prop31
280
     0
102
RTVSPost2010PropOp31
 70
     0
102
RTVSPost2010Prop32
280
     0
102
RTVSPost2010PropOp32
 70
     0
102
RTVSPost2010Prop33
280
     0
102
RTVSPost2010PropOp33
 70
     0
102
RTVSPost2010Prop34
280
     0
102
RTVSPost2010PropOp34
 70
     0
102
RTVSPost2010Prop35
280
     0
102
RTVSPost2010PropOp35
 70
     0
102
RTVSPost2010Prop36
280
     0
102
RTVSPost2010PropOp36
 70
     0
102
RTVSPost2010Prop37
 90
       50
102
RTVSPost2010PropOp37
 70
     0
102
RTVSPost2010Prop38
140
0.0
102
RTVSPost2010PropOp38
 70
     0
102
RTVSPost2010Prop39
140
1.0
102
RTVSPost2010PropOp39
 70
     0
102
RTVSPost2010Prop40
 90
        0
102
RTVSPost2010PropOp40
 70
     0
102
RTVSPost2010Prop41ColorIndex
 90
       18
102
RTVSPost2010Prop41ColorRGB
 90
        0
102
RTVSPost2010PropOp41
 70
     0
102
RTVSPost2010Prop42
 90
       50
102
RTVSPost2010PropOp42
 70
     0
102
RTVSPost2010Prop43
 90
        3
102
RTVSPost2010PropOp43
 70
     0
102
RTVSPost2010Prop44ColorIndex
 90
        5
102
RTVSPost2010Prop44ColorRGB
 90
      255
102
RTVSPost2010PropOp44
 70
     0
102
RTVSPost2010Prop45
280
     0
102
RTVSPost2010PropOp45
 70
     0
102
RTVSPost2010Prop46
 90
       50
102
RTVSPost2010PropOp46
 70
     0
102
RTVSPost2010Prop47
 90
       50
102
RTVSPost2010PropOp47
 70
     0
102
RTVSPost2010Prop48
 90
       50
102
RTVSPost2010PropOp48
 70
     0
102
RTVSPost2010Prop49
280
     0
102
RTVSPost2010PropOp49
 70
     0
102
RTVSPost2010Prop50
 90
       50
102
RTVSPost2010PropOp50
 70
     0
102
RTVSPost2010Prop51ColorIndex
 90
      256
102
RTVSPost2010Prop51ColorRGB
 90
-16777216
102
RTVSPost2010PropOp51
 70
     0
102
RTVSPost2010Prop52
140
1.0
102
RTVSPost2010PropOp52
 70
     0
102
RTVSPost2010Prop53
 90
        2
102
RTVSPost2010PropOp53
 70
     0
102
RTVSPost2010Prop54
  1
strokes_ogs.tif
102
RTVSPost2010PropOp54
 70
     0
102
RTVSPost2010Prop55
280
     0
102
RTVSPost2010PropOp55
 70
     0
102
RTVSPost2010Prop56
140
1.0
102
RTVSPost2010PropOp56
 70
     0
102
RTVSPost2010Prop57
140
1.0
102
RTVSPost2010PropOp57
 70
     0
  0
XRECORD
  5
389
102
{ACAD_REACTORS
330
388
102
}
330
388
100
AcDbXrecord
280
     1
102
RTVSPropertyOp0
 70
     1
102
RTVSPropertyOp1
 70
     1
102
RTVSPropertyOp2
 70
     1
102
RTVSPropertyOp3
 70
     1
102
RTVSPropertyOp4
 70
     1
102
RTVSPropertyOp5
 70
     1
102
RTVSPropertyOp6
 70
     1
102
RTVSPropertyOp7
 70
     1
102
RTVSPropertyOp8
 70
     1
102
RTVSPropertyOp9
 70
     1
102
RTVSPropertyOp10
 70
     1
102
RTVSPropertyOp11
 70
     1
102
RTVSPropertyOp12
 70
     1
102
RTVSPropertyOp13
 70
     1
102
RTVSPropertyOp14
 70
     1
102
RTVSPropertyOp15
 70
     1
102
RTVSPropertyOp16
 70
     1
102
RTVSPropertyOp17
 70
     1
102
RTVSPropertyOp18
 70
     1
102
RTVSPropertyOp19
 70
     1
102
RTVSPropertyOp20
 70
     1
102
RTVSPropertyOp21
 70
     1
102
RTVSPropertyOp22
 70
     1
102
RTVSPropertyOp23
 70
     1
102
RTVSPropertyOp24
 70
     1
102
RTVSPropertyOp25
 70
     1
102
RTVSPropertyOp26
 70
     1
102
RTVSPropertyOp27
 70
     1
102
RTVSPropertyOp28
 70
     1
102
RTVSPropertyOp29
 70
     1
102
RTVSPropertyOp30
 70
     1
102
RTVSPropertyOp31
 70
     1
102
RTVSPropertyOp32
 70
     1
102
RTVSPropertyOp33
 70
     1
102
RTVSPropertyOp34
 70
     1
102
RTVSPropertyOp35
 70
     1
102
RTVSPropertyOp36
 70
     1
102
RTVSPropertyOp37
 70
     1
102
RTVSPropertyOp38
 70
     1
102
RTVSPropertyOp39
 70
     1
102
RTVSPropertyOp40
 70
     1
102
RTVSPropertyOp41
 70
     1
102
RTVSPropertyOp42
 70
     1
102
RTVSPropertyOp43
 70
     1
102
RTVSPropertyOp44
 70
     1
102
RTVSPropertyOp45
 70
     1
102
RTVSPropertyOp46
 70
     1
102
RTVSPropertyOp47
 70
     1
102
RTVSPropertyOp48
 70
     1
102
RTVSPropertyOp49
 70
     1
102
RTVSPropertyOp50
 70
     1
102
RTVSPropertyOp51
 70
     0
102
RTVSPropertyOp52
 70
     0
102
RTVSPropertyOp53
 70
     1
102
RTVSPropertyOp54
 70
     1
102
RTVSPropertyOp55
 70
     1
102
RTVSPropertyOp56
 70
     1
102
RTVSPropertyOp57
 70
     1
102
RTVSPost2010Prop28
280
     0
102
RTVSPost2010PropOp28
 70
     1
102
RTVSPost2010Prop29
280
     1
102
RTVSPost2010PropOp29
 70
     1
102
RTVSPost2010Prop30
280
     1
102
RTVSPost2010PropOp30
 70
     1
102
RTVSPost2010Prop31
280
     0
102
RTVSPost2010PropOp31
 70
     1
102
RTVSPost2010Prop32
280
     0
102
RTVSPost2010PropOp32
 70
     1
102
RTVSPost2010Prop33
280
     0
102
RTVSPost2010PropOp33
 70
     1
102
RTVSPost2010Prop34
280
     0
102
RTVSPost2010PropOp34
 70
     1
102
RTVSPost2010Prop35
280
     0
102
RTVSPost2010PropOp35
 70
     1
102
RTVSPost2010Prop36
280
     0
102
RTVSPost2010PropOp36
 70
     1
102
RTVSPost2010Prop37
 90
       50
102
RTVSPost2010PropOp37
 70
     1
102
RTVSPost2010Prop38
140
0.0
102
RTVSPost2010PropOp38
 70
     1
102
RTVSPost2010Prop39
140
1.0
102
RTVSPost2010PropOp39
 70
     1
102
RTVSPost2010Prop40
 90
        0
102
RTVSPost2010PropOp40
 70
     1
102
RTVSPost2010Prop41ColorIndex
 90
       18
102
RTVSPost2010Prop41ColorRGB
 90
        0
102
RTVSPost2010PropOp41
 70
     1
102
RTVSPost2010Prop42
 90
       50
102
RTVSPost2010PropOp42
 70
     1
102
RTVSPost2010Prop43
 90
        3
102
RTVSPost2010PropOp43
 70
     1
102
RTVSPost2010Prop44ColorIndex
 90
        5
102
RTVSPost2010Prop44ColorRGB
 90
      255
102
RTVSPost2010PropOp44
 70
     1
102
RTVSPost2010Prop45
280
     0
102
RTVSPost2010PropOp45
 70
     1
102
RTVSPost2010Prop46
 90
       50
102
RTVSPost2010PropOp46
 70
     1
102
RTVSPost2010Prop47
 90
       50
102
RTVSPost2010PropOp47
 70
     1
102
RTVSPost2010Prop48
 90
       50
102
RTVSPost2010PropOp48
 70
     1
102
RTVSPost2010Prop49
280
     0
102
RTVSPost2010PropOp49
 70
     1
102
RTVSPost2010Prop50
 90
       50
102
RTVSPost2010PropOp50
 70
     1
102
RTVSPost2010Prop51ColorIndex
 90
      256
102
RTVSPost2010Prop51ColorRGB
 90
-16777216
102
RTVSPost2010PropOp51
 70
     0
102
RTVSPost2010Prop52
140
1.0
102
RTVSPost2010PropOp52
 70
     0
102
RTVSPost2010Prop53
 90
        2
102
RTVSPost2010PropOp53
 70
     1
102
RTVSPost2010Prop54
  1
strokes_ogs.tif
102
RTVSPost2010PropOp54
 70
     1
102
RTVSPost2010Prop55
280
     0
102
RTVSPost2010PropOp55
 70
     1
102
RTVSPost2010Prop56
140
1.0
102
RTVSPost2010PropOp56
 70
     1
102
RTVSPost2010Prop57
140
1.0
102
RTVSPost2010PropOp57
 70
     1
  0
XRECORD
  5
3A7
102
{ACAD_REACTORS
330
3A6
102
}
330
3A6
100
AcDbXrecord
280
     1
102
RTVSPropertyOp0
 70
     1
102
RTVSPropertyOp1
 70
     1
102
RTVSPropertyOp2
 70
     1
102
RTVSPropertyOp3
 70
     1
102
RTVSPropertyOp4
 70
     1
102
RTVSPropertyOp5
 70
     1
102
RTVSPropertyOp6
 70
     1
102
RTVSPropertyOp7
 70
     1
102
RTVSPropertyOp8
 70
     1
102
RTVSPropertyOp9
 70
     1
102
RTVSPropertyOp10
 70
     1
102
RTVSPropertyOp11
 70
     1
102
RTVSPropertyOp12
 70
     1
102
RTVSPropertyOp13
 70
     1
102
RTVSPropertyOp14
 70
     1
102
RTVSPropertyOp15
 70
     1
102
RTVSPropertyOp16
 70
     1
102
RTVSPropertyOp17
 70
     1
102
RTVSPropertyOp18
 70
     1
102
RTVSPropertyOp19
 70
     1
102
RTVSPropertyOp20
 70
     1
102
RTVSPropertyOp21
 70
     1
102
RTVSPropertyOp22
 70
     1
102
RTVSPropertyOp23
 70
     1
102
RTVSPropertyOp24
 70
     1
102
RTVSPropertyOp25
 70
     1
102
RTVSPropertyOp26
 70
     1
102
RTVSPropertyOp27
 70
     1
102
RTVSPropertyOp28
 70
     1
102
RTVSPropertyOp29
 70
     1
102
RTVSPropertyOp30
 70
     1
102
RTVSPropertyOp31
 70
     1
102
RTVSPropertyOp32
 70
     1
102
RTVSPropertyOp33
 70
     1
102
RTVSPropertyOp34
 70
     1
102
RTVSPropertyOp35
 70
     1
102
RTVSPropertyOp36
 70
     1
102
RTVSPropertyOp37
 70
     1
102
RTVSPropertyOp38
 70
     1
102
RTVSPropertyOp39
 70
     1
102
RTVSPropertyOp40
 70
     1
102
RTVSPropertyOp41
 70
     1
102
RTVSPropertyOp42
 70
     1
102
RTVSPropertyOp43
 70
     1
102
RTVSPropertyOp44
 70
     1
102
RTVSPropertyOp45
 70
     1
102
RTVSPropertyOp46
 70
     1
102
RTVSPropertyOp47
 70
     1
102
RTVSPropertyOp48
 70
     1
102
RTVSPropertyOp49
 70
     1
102
RTVSPropertyOp50
 70
     1
102
RTVSPropertyOp51
 70
     0
102
RTVSPropertyOp52
 70
     0
102
RTVSPropertyOp53
 70
     1
102
RTVSPropertyOp54
 70
     1
102
RTVSPropertyOp55
 70
     1
102
RTVSPropertyOp56
 70
     1
102
RTVSPropertyOp57
 70
     1
102
RTVSPost2010Prop28
280
     0
102
RTVSPost2010PropOp28
 70
     1
102
RTVSPost2010Prop29
280
     1
102
RTVSPost2010PropOp29
 70
     1
102
RTVSPost2010Prop30
280
     1
102
RTVSPost2010PropOp30
 70
     1
102
RTVSPost2010Prop31
280
     0
102
RTVSPost2010PropOp31
 70
     1
102
RTVSPost2010Prop32
280
     0
102
RTVSPost2010PropOp32
 70
     1
102
RTVSPost2010Prop33
280
     0
102
RTVSPost2010PropOp33
 70
     1
102
RTVSPost2010Prop34
280
     0
102
RTVSPost2010PropOp34
 70
     1
102
RTVSPost2010Prop35
280
     0
102
RTVSPost2010PropOp35
 70
     1
102
RTVSPost2010Prop36
280
     0
102
RTVSPost2010PropOp36
 70
     1
102
RTVSPost2010Prop37
 90
       50
102
RTVSPost2010PropOp37
 70
     1
102
RTVSPost2010Prop38
140
0.0
102
RTVSPost2010PropOp38
 70
     1
102
RTVSPost2010Prop39
140
1.0
102
RTVSPost2010PropOp39
 70
     1
102
RTVSPost2010Prop40
 90
        0
102
RTVSPost2010PropOp40
 70
     1
102
RTVSPost2010Prop41ColorIndex
 90
       18
102
RTVSPost2010Prop41ColorRGB
 90
        0
102
RTVSPost2010PropOp41
 70
     1
102
RTVSPost2010Prop42
 90
       50
102
RTVSPost2010PropOp42
 70
     1
102
RTVSPost2010Prop43
 90
        3
102
RTVSPost2010PropOp43
 70
     1
102
RTVSPost2010Prop44ColorIndex
 90
        5
102
RTVSPost2010Prop44ColorRGB
 90
      255
102
RTVSPost2010PropOp44
 70
     1
102
RTVSPost2010Prop45
280
     0
102
RTVSPost2010PropOp45
 70
     1
102
RTVSPost2010Prop46
 90
       50
102
RTVSPost2010PropOp46
 70
     1
102
RTVSPost2010Prop47
 90
       50
102
RTVSPost2010PropOp47
 70
     1
102
RTVSPost2010Prop48
 90
       50
102
RTVSPost2010PropOp48
 70
     1
102
RTVSPost2010Prop49
280
     0
102
RTVSPost2010PropOp49
 70
     1
102
RTVSPost2010Prop50
 90
       50
102
RTVSPost2010PropOp50
 70
     1
102
RTVSPost2010Prop51ColorIndex
 90
      256
102
RTVSPost2010Prop51ColorRGB
 90
-16777216
102
RTVSPost2010PropOp51
 70
     0
102
RTVSPost2010Prop52
140
1.0
102
RTVSPost2010PropOp52
 70
     0
102
RTVSPost2010Prop53
 90
        2
102
RTVSPost2010PropOp53
 70
     1
102
RTVSPost2010Prop54
  1
strokes_ogs.tif
102
RTVSPost2010PropOp54
 70
     1
102
RTVSPost2010Prop55
280
     0
102
RTVSPost2010PropOp55
 70
     1
102
RTVSPost2010Prop56
140
1.0
102
RTVSPost2010PropOp56
 70
     1
102
RTVSPost2010Prop57
140
1.0
102
RTVSPost2010PropOp57
 70
     1
  0
XRECORD
  5
3A5
102
{ACAD_REACTORS
330
3A4
102
}
330
3A4
100
AcDbXrecord
280
     1
102
RTVSPropertyOp0
 70
     1
102
RTVSPropertyOp1
 70
     1
102
RTVSPropertyOp2
 70
     1
102
RTVSPropertyOp3
 70
     1
102
RTVSPropertyOp4
 70
     1
102
RTVSPropertyOp5
 70
     1
102
RTVSPropertyOp6
 70
     1
102
RTVSPropertyOp7
 70
     1
102
RTVSPropertyOp8
 70
     1
102
RTVSPropertyOp9
 70
     1
102
RTVSPropertyOp10
 70
     1
102
RTVSPropertyOp11
 70
     1
102
RTVSPropertyOp12
 70
     1
102
RTVSPropertyOp13
 70
     1
102
RTVSPropertyOp14
 70
     1
102
RTVSPropertyOp15
 70
     1
102
RTVSPropertyOp16
 70
     1
102
RTVSPropertyOp17
 70
     1
102
RTVSPropertyOp18
 70
     1
102
RTVSPropertyOp19
 70
     1
102
RTVSPropertyOp20
 70
     1
102
RTVSPropertyOp21
 70
     1
102
RTVSPropertyOp22
 70
     1
102
RTVSPropertyOp23
 70
     1
102
RTVSPropertyOp24
 70
     1
102
RTVSPropertyOp25
 70
     1
102
RTVSPropertyOp26
 70
     1
102
RTVSPropertyOp27
 70
     1
102
RTVSPropertyOp28
 70
     1
102
RTVSPropertyOp29
 70
     1
102
RTVSPropertyOp30
 70
     1
102
RTVSPropertyOp31
 70
     1
102
RTVSPropertyOp32
 70
     1
102
RTVSPropertyOp33
 70
     1
102
RTVSPropertyOp34
 70
     1
102
RTVSPropertyOp35
 70
     1
102
RTVSPropertyOp36
 70
     1
102
RTVSPropertyOp37
 70
     1
102
RTVSPropertyOp38
 70
     1
102
RTVSPropertyOp39
 70
     1
102
RTVSPropertyOp40
 70
     1
102
RTVSPropertyOp41
 70
     1
102
RTVSPropertyOp42
 70
     1
102
RTVSPropertyOp43
 70
     1
102
RTVSPropertyOp44
 70
     1
102
RTVSPropertyOp45
 70
     1
102
RTVSPropertyOp46
 70
     1
102
RTVSPropertyOp47
 70
     1
102
RTVSPropertyOp48
 70
     1
102
RTVSPropertyOp49
 70
     1
102
RTVSPropertyOp50
 70
     1
102
RTVSPropertyOp51
 70
     0
102
RTVSPropertyOp52
 70
     0
102
RTVSPropertyOp53
 70
     1
102
RTVSPropertyOp54
 70
     1
102
RTVSPropertyOp55
 70
     1
102
RTVSPropertyOp56
 70
     1
102
RTVSPropertyOp57
 70
     1
102
RTVSPost2010Prop28
280
     0
102
RTVSPost2010PropOp28
 70
     1
102
RTVSPost2010Prop29
280
     1
102
RTVSPost2010PropOp29
 70
     1
102
RTVSPost2010Prop30
280
     1
102
RTVSPost2010PropOp30
 70
     1
102
RTVSPost2010Prop31
280
     0
102
RTVSPost2010PropOp31
 70
     1
102
RTVSPost2010Prop32
280
     0
102
RTVSPost2010PropOp32
 70
     1
102
RTVSPost2010Prop33
280
     0
102
RTVSPost2010PropOp33
 70
     1
102
RTVSPost2010Prop34
280
     0
102
RTVSPost2010PropOp34
 70
     1
102
RTVSPost2010Prop35
280
     0
102
RTVSPost2010PropOp35
 70
     1
102
RTVSPost2010Prop36
280
     0
102
RTVSPost2010PropOp36
 70
     1
102
RTVSPost2010Prop37
 90
       50
102
RTVSPost2010PropOp37
 70
     1
102
RTVSPost2010Prop38
140
0.0
102
RTVSPost2010PropOp38
 70
     1
102
RTVSPost2010Prop39
140
1.0
102
RTVSPost2010PropOp39
 70
     1
102
RTVSPost2010Prop40
 90
        0
102
RTVSPost2010PropOp40
 70
     1
102
RTVSPost2010Prop41ColorIndex
 90
       18
102
RTVSPost2010Prop41ColorRGB
 90
        0
102
RTVSPost2010PropOp41
 70
     1
102
RTVSPost2010Prop42
 90
       50
102
RTVSPost2010PropOp42
 70
     1
102
RTVSPost2010Prop43
 90
        3
102
RTVSPost2010PropOp43
 70
     1
102
RTVSPost2010Prop44ColorIndex
 90
        5
102
RTVSPost2010Prop44ColorRGB
 90
      255
102
RTVSPost2010PropOp44
 70
     1
102
RTVSPost2010Prop45
280
     0
102
RTVSPost2010PropOp45
 70
     1
102
RTVSPost2010Prop46
 90
       50
102
RTVSPost2010PropOp46
 70
     1
102
RTVSPost2010Prop47
 90
       50
102
RTVSPost2010PropOp47
 70
     1
102
RTVSPost2010Prop48
 90
       50
102
RTVSPost2010PropOp48
 70
     1
102
RTVSPost2010Prop49
280
     0
102
RTVSPost2010PropOp49
 70
     1
102
RTVSPost2010Prop50
 90
       50
102
RTVSPost2010PropOp50
 70
     1
102
RTVSPost2010Prop51ColorIndex
 90
      256
102
RTVSPost2010Prop51ColorRGB
 90
-16777216
102
RTVSPost2010PropOp51
 70
     0
102
RTVSPost2010Prop52
140
1.0
102
RTVSPost2010PropOp52
 70
     0
102
RTVSPost2010Prop53
 90
        2
102
RTVSPost2010PropOp53
 70
     1
102
RTVSPost2010Prop54
  1
strokes_ogs.tif
102
RTVSPost2010PropOp54
 70
     1
102
RTVSPost2010Prop55
280
     0
102
RTVSPost2010PropOp55
 70
     1
102
RTVSPost2010Prop56
140
1.0
102
RTVSPost2010PropOp56
 70
     1
102
RTVSPost2010Prop57
140
1.0
102
RTVSPost2010PropOp57
 70
     1
  0
XRECORD
  5
39F
102
{ACAD_REACTORS
330
39E
102
}
330
39E
100
AcDbXrecord
280
     1
102
RTVSPropertyOp0
 70
     1
102
RTVSPropertyOp1
 70
     1
102
RTVSPropertyOp2
 70
     1
102
RTVSPropertyOp3
 70
     1
102
RTVSPropertyOp4
 70
     1
102
RTVSPropertyOp5
 70
     1
102
RTVSPropertyOp6
 70
     1
102
RTVSPropertyOp7
 70
     1
102
RTVSPropertyOp8
 70
     1
102
RTVSPropertyOp9
 70
     1
102
RTVSPropertyOp10
 70
     1
102
RTVSPropertyOp11
 70
     1
102
RTVSPropertyOp12
 70
     1
102
RTVSPropertyOp13
 70
     1
102
RTVSPropertyOp14
 70
     1
102
RTVSPropertyOp15
 70
     1
102
RTVSPropertyOp16
 70
     1
102
RTVSPropertyOp17
 70
     1
102
RTVSPropertyOp18
 70
     1
102
RTVSPropertyOp19
 70
     1
102
RTVSPropertyOp20
 70
     1
102
RTVSPropertyOp21
 70
     1
102
RTVSPropertyOp22
 70
     1
102
RTVSPropertyOp23
 70
     1
102
RTVSPropertyOp24
 70
     1
102
RTVSPropertyOp25
 70
     1
102
RTVSPropertyOp26
 70
     1
102
RTVSPropertyOp27
 70
     1
102
RTVSPropertyOp28
 70
     1
102
RTVSPropertyOp29
 70
     1
102
RTVSPropertyOp30
 70
     1
102
RTVSPropertyOp31
 70
     1
102
RTVSPropertyOp32
 70
     1
102
RTVSPropertyOp33
 70
     1
102
RTVSPropertyOp34
 70
     1
102
RTVSPropertyOp35
 70
     1
102
RTVSPropertyOp36
 70
     1
102
RTVSPropertyOp37
 70
     1
102
RTVSPropertyOp38
 70
     1
102
RTVSPropertyOp39
 70
     1
102
RTVSPropertyOp40
 70
     1
102
RTVSPropertyOp41
 70
     1
102
RTVSPropertyOp42
 70
     1
102
RTVSPropertyOp43
 70
     1
102
RTVSPropertyOp44
 70
     1
102
RTVSPropertyOp45
 70
     1
102
RTVSPropertyOp46
 70
     1
102
RTVSPropertyOp47
 70
     1
102
RTVSPropertyOp48
 70
     1
102
RTVSPropertyOp49
 70
     1
102
RTVSPropertyOp50
 70
     1
102
RTVSPropertyOp51
 70
     0
102
RTVSPropertyOp52
 70
     0
102
RTVSPropertyOp53
 70
     1
102
RTVSPropertyOp54
 70
     1
102
RTVSPropertyOp55
 70
     1
102
RTVSPropertyOp56
 70
     1
102
RTVSPropertyOp57
 70
     1
102
RTVSPost2010Prop28
280
     0
102
RTVSPost2010PropOp28
 70
     1
102
RTVSPost2010Prop29
280
     1
102
RTVSPost2010PropOp29
 70
     1
102
RTVSPost2010Prop30
280
     1
102
RTVSPost2010PropOp30
 70
     1
102
RTVSPost2010Prop31
280
     0
102
RTVSPost2010PropOp31
 70
     1
102
RTVSPost2010Prop32
280
     0
102
RTVSPost2010PropOp32
 70
     1
102
RTVSPost2010Prop33
280
     0
102
RTVSPost2010PropOp33
 70
     1
102
RTVSPost2010Prop34
280
     0
102
RTVSPost2010PropOp34
 70
     1
102
RTVSPost2010Prop35
280
     0
102
RTVSPost2010PropOp35
 70
     1
102
RTVSPost2010Prop36
280
     0
102
RTVSPost2010PropOp36
 70
     1
102
RTVSPost2010Prop37
 90
       50
102
RTVSPost2010PropOp37
 70
     1
102
RTVSPost2010Prop38
140
0.0
102
RTVSPost2010PropOp38
 70
     1
102
RTVSPost2010Prop39
140
1.0
102
RTVSPost2010PropOp39
 70
     1
102
RTVSPost2010Prop40
 90
        0
102
RTVSPost2010PropOp40
 70
     1
102
RTVSPost2010Prop41ColorIndex
 90
       18
102
RTVSPost2010Prop41ColorRGB
 90
        0
102
RTVSPost2010PropOp41
 70
     1
102
RTVSPost2010Prop42
 90
       50
102
RTVSPost2010PropOp42
 70
     1
102
RTVSPost2010Prop43
 90
        3
102
RTVSPost2010PropOp43
 70
     1
102
RTVSPost2010Prop44ColorIndex
 90
        5
102
RTVSPost2010Prop44ColorRGB
 90
      255
102
RTVSPost2010PropOp44
 70
     1
102
RTVSPost2010Prop45
280
     0
102
RTVSPost2010PropOp45
 70
     1
102
RTVSPost2010Prop46
 90
       50
102
RTVSPost2010PropOp46
 70
     1
102
RTVSPost2010Prop47
 90
       50
102
RTVSPost2010PropOp47
 70
     1
102
RTVSPost2010Prop48
 90
       50
102
RTVSPost2010PropOp48
 70
     1
102
RTVSPost2010Prop49
280
     0
102
RTVSPost2010PropOp49
 70
     1
102
RTVSPost2010Prop50
 90
       50
102
RTVSPost2010PropOp50
 70
     1
102
RTVSPost2010Prop51ColorIndex
 90
      256
102
RTVSPost2010Prop51ColorRGB
 90
-16777216
102
RTVSPost2010PropOp51
 70
     0
102
RTVSPost2010Prop52
140
1.0
102
RTVSPost2010PropOp52
 70
     0
102
RTVSPost2010Prop53
 90
        2
102
RTVSPost2010PropOp53
 70
     1
102
RTVSPost2010Prop54
  1
strokes_ogs.tif
102
RTVSPost2010PropOp54
 70
     1
102
RTVSPost2010Prop55
280
     0
102
RTVSPost2010PropOp55
 70
     1
102
RTVSPost2010Prop56
140
1.0
102
RTVSPost2010PropOp56
 70
     1
102
RTVSPost2010Prop57
140
1.0
102
RTVSPost2010PropOp57
 70
     1
  0
XRECORD
  5
3A1
102
{ACAD_REACTORS
330
3A0
102
}
330
3A0
100
AcDbXrecord
280
     1
102
RTVSPropertyOp0
 70
     1
102
RTVSPropertyOp1
 70
     1
102
RTVSPropertyOp2
 70
     1
102
RTVSPropertyOp3
 70
     1
102
RTVSPropertyOp4
 70
     1
102
RTVSPropertyOp5
 70
     1
102
RTVSPropertyOp6
 70
     1
102
RTVSPropertyOp7
 70
     1
102
RTVSPropertyOp8
 70
     1
102
RTVSPropertyOp9
 70
     1
102
RTVSPropertyOp10
 70
     1
102
RTVSPropertyOp11
 70
     1
102
RTVSPropertyOp12
 70
     1
102
RTVSPropertyOp13
 70
     1
102
RTVSPropertyOp14
 70
     1
102
RTVSPropertyOp15
 70
     1
102
RTVSPropertyOp16
 70
     1
102
RTVSPropertyOp17
 70
     1
102
RTVSPropertyOp18
 70
     1
102
RTVSPropertyOp19
 70
     1
102
RTVSPropertyOp20
 70
     1
102
RTVSPropertyOp21
 70
     1
102
RTVSPropertyOp22
 70
     1
102
RTVSPropertyOp23
 70
     1
102
RTVSPropertyOp24
 70
     1
102
RTVSPropertyOp25
 70
     1
102
RTVSPropertyOp26
 70
     1
102
RTVSPropertyOp27
 70
     1
102
RTVSPropertyOp28
 70
     1
102
RTVSPropertyOp29
 70
     1
102
RTVSPropertyOp30
 70
     1
102
RTVSPropertyOp31
 70
     1
102
RTVSPropertyOp32
 70
     1
102
RTVSPropertyOp33
 70
     1
102
RTVSPropertyOp34
 70
     1
102
RTVSPropertyOp35
 70
     1
102
RTVSPropertyOp36
 70
     1
102
RTVSPropertyOp37
 70
     1
102
RTVSPropertyOp38
 70
     1
102
RTVSPropertyOp39
 70
     1
102
RTVSPropertyOp40
 70
     1
102
RTVSPropertyOp41
 70
     1
102
RTVSPropertyOp42
 70
     1
102
RTVSPropertyOp43
 70
     1
102
RTVSPropertyOp44
 70
     1
102
RTVSPropertyOp45
 70
     1
102
RTVSPropertyOp46
 70
     1
102
RTVSPropertyOp47
 70
     1
102
RTVSPropertyOp48
 70
     1
102
RTVSPropertyOp49
 70
     1
102
RTVSPropertyOp50
 70
     1
102
RTVSPropertyOp51
 70
     0
102
RTVSPropertyOp52
 70
     0
102
RTVSPropertyOp53
 70
     1
102
RTVSPropertyOp54
 70
     1
102
RTVSPropertyOp55
 70
     1
102
RTVSPropertyOp56
 70
     1
102
RTVSPropertyOp57
 70
     1
102
RTVSPost2010Prop28
280
     0
102
RTVSPost2010PropOp28
 70
     1
102
RTVSPost2010Prop29
280
     1
102
RTVSPost2010PropOp29
 70
     1
102
RTVSPost2010Prop30
280
     1
102
RTVSPost2010PropOp30
 70
     1
102
RTVSPost2010Prop31
280
     0
102
RTVSPost2010PropOp31
 70
     1
102
RTVSPost2010Prop32
280
     0
102
RTVSPost2010PropOp32
 70
     1
102
RTVSPost2010Prop33
280
     0
102
RTVSPost2010PropOp33
 70
     1
102
RTVSPost2010Prop34
280
     0
102
RTVSPost2010PropOp34
 70
     1
102
RTVSPost2010Prop35
280
     0
102
RTVSPost2010PropOp35
 70
     1
102
RTVSPost2010Prop36
280
     0
102
RTVSPost2010PropOp36
 70
     1
102
RTVSPost2010Prop37
 90
       50
102
RTVSPost2010PropOp37
 70
     1
102
RTVSPost2010Prop38
140
0.0
102
RTVSPost2010PropOp38
 70
     1
102
RTVSPost2010Prop39
140
1.0
102
RTVSPost2010PropOp39
 70
     1
102
RTVSPost2010Prop40
 90
        0
102
RTVSPost2010PropOp40
 70
     1
102
RTVSPost2010Prop41ColorIndex
 90
       18
102
RTVSPost2010Prop41ColorRGB
 90
        0
102
RTVSPost2010PropOp41
 70
     1
102
RTVSPost2010Prop42
 90
       50
102
RTVSPost2010PropOp42
 70
     1
102
RTVSPost2010Prop43
 90
        3
102
RTVSPost2010PropOp43
 70
     1
102
RTVSPost2010Prop44ColorIndex
 90
        5
102
RTVSPost2010Prop44ColorRGB
 90
      255
102
RTVSPost2010PropOp44
 70
     1
102
RTVSPost2010Prop45
280
     0
102
RTVSPost2010PropOp45
 70
     1
102
RTVSPost2010Prop46
 90
       50
102
RTVSPost2010PropOp46
 70
     1
102
RTVSPost2010Prop47
 90
       50
102
RTVSPost2010PropOp47
 70
     1
102
RTVSPost2010Prop48
 90
       50
102
RTVSPost2010PropOp48
 70
     1
102
RTVSPost2010Prop49
280
     0
102
RTVSPost2010PropOp49
 70
     1
102
RTVSPost2010Prop50
 90
       50
102
RTVSPost2010PropOp50
 70
     1
102
RTVSPost2010Prop51ColorIndex
 90
      256
102
RTVSPost2010Prop51ColorRGB
 90
-16777216
102
RTVSPost2010PropOp51
 70
     0
102
RTVSPost2010Prop52
140
1.0
102
RTVSPost2010PropOp52
 70
     0
102
RTVSPost2010Prop53
 90
        2
102
RTVSPost2010PropOp53
 70
     1
102
RTVSPost2010Prop54
  1
strokes_ogs.tif
102
RTVSPost2010PropOp54
 70
     1
102
RTVSPost2010Prop55
280
     0
102
RTVSPost2010PropOp55
 70
     1
102
RTVSPost2010Prop56
140
1.0
102
RTVSPost2010PropOp56
 70
     1
102
RTVSPost2010Prop57
140
1.0
102
RTVSPost2010PropOp57
 70
     1
  0
XRECORD
  5
391
102
{ACAD_REACTORS
330
390
102
}
330
390
100
AcDbXrecord
280
     1
102
RTVSPropertyOp0
 70
     1
102
RTVSPropertyOp1
 70
     1
102
RTVSPropertyOp2
 70
     1
102
RTVSPropertyOp3
 70
     1
102
RTVSPropertyOp4
 70
     1
102
RTVSPropertyOp5
 70
     1
102
RTVSPropertyOp6
 70
     1
102
RTVSPropertyOp7
 70
     1
102
RTVSPropertyOp8
 70
     1
102
RTVSPropertyOp9
 70
     1
102
RTVSPropertyOp10
 70
     1
102
RTVSPropertyOp11
 70
     1
102
RTVSPropertyOp12
 70
     1
102
RTVSPropertyOp13
 70
     1
102
RTVSPropertyOp14
 70
     1
102
RTVSPropertyOp15
 70
     1
102
RTVSPropertyOp16
 70
     1
102
RTVSPropertyOp17
 70
     1
102
RTVSPropertyOp18
 70
     1
102
RTVSPropertyOp19
 70
     1
102
RTVSPropertyOp20
 70
     1
102
RTVSPropertyOp21
 70
     1
102
RTVSPropertyOp22
 70
     1
102
RTVSPropertyOp23
 70
     1
102
RTVSPropertyOp24
 70
     1
102
RTVSPropertyOp25
 70
     1
102
RTVSPropertyOp26
 70
     1
102
RTVSPropertyOp27
 70
     1
102
RTVSPropertyOp28
 70
     1
102
RTVSPropertyOp29
 70
     1
102
RTVSPropertyOp30
 70
     1
102
RTVSPropertyOp31
 70
     1
102
RTVSPropertyOp32
 70
     1
102
RTVSPropertyOp33
 70
     1
102
RTVSPropertyOp34
 70
     1
102
RTVSPropertyOp35
 70
     1
102
RTVSPropertyOp36
 70
     1
102
RTVSPropertyOp37
 70
     1
102
RTVSPropertyOp38
 70
     1
102
RTVSPropertyOp39
 70
     1
102
RTVSPropertyOp40
 70
     1
102
RTVSPropertyOp41
 70
     1
102
RTVSPropertyOp42
 70
     1
102
RTVSPropertyOp43
 70
     1
102
RTVSPropertyOp44
 70
     1
102
RTVSPropertyOp45
 70
     1
102
RTVSPropertyOp46
 70
     1
102
RTVSPropertyOp47
 70
     1
102
RTVSPropertyOp48
 70
     1
102
RTVSPropertyOp49
 70
     1
102
RTVSPropertyOp50
 70
     1
102
RTVSPropertyOp51
 70
     0
102
RTVSPropertyOp52
 70
     0
102
RTVSPropertyOp53
 70
     1
102
RTVSPropertyOp54
 70
     1
102
RTVSPropertyOp55
 70
     1
102
RTVSPropertyOp56
 70
     1
102
RTVSPropertyOp57
 70
     1
102
RTVSPost2010Prop28
280
     0
102
RTVSPost2010PropOp28
 70
     1
102
RTVSPost2010Prop29
280
     1
102
RTVSPost2010PropOp29
 70
     1
102
RTVSPost2010Prop30
280
     1
102
RTVSPost2010PropOp30
 70
     1
102
RTVSPost2010Prop31
280
     0
102
RTVSPost2010PropOp31
 70
     1
102
RTVSPost2010Prop32
280
     0
102
RTVSPost2010PropOp32
 70
     1
102
RTVSPost2010Prop33
280
     0
102
RTVSPost2010PropOp33
 70
     1
102
RTVSPost2010Prop34
280
     0
102
RTVSPost2010PropOp34
 70
     1
102
RTVSPost2010Prop35
280
     0
102
RTVSPost2010PropOp35
 70
     1
102
RTVSPost2010Prop36
280
     0
102
RTVSPost2010PropOp36
 70
     1
102
RTVSPost2010Prop37
 90
       50
102
RTVSPost2010PropOp37
 70
     1
102
RTVSPost2010Prop38
140
0.0
102
RTVSPost2010PropOp38
 70
     1
102
RTVSPost2010Prop39
140
1.0
102
RTVSPost2010PropOp39
 70
     1
102
RTVSPost2010Prop40
 90
        0
102
RTVSPost2010PropOp40
 70
     1
102
RTVSPost2010Prop41ColorIndex
 90
       18
102
RTVSPost2010Prop41ColorRGB
 90
        0
102
RTVSPost2010PropOp41
 70
     1
102
RTVSPost2010Prop42
 90
       50
102
RTVSPost2010PropOp42
 70
     1
102
RTVSPost2010Prop43
 90
        3
102
RTVSPost2010PropOp43
 70
     1
102
RTVSPost2010Prop44ColorIndex
 90
        5
102
RTVSPost2010Prop44ColorRGB
 90
      255
102
RTVSPost2010PropOp44
 70
     1
102
RTVSPost2010Prop45
280
     0
102
RTVSPost2010PropOp45
 70
     1
102
RTVSPost2010Prop46
 90
       50
102
RTVSPost2010PropOp46
 70
     1
102
RTVSPost2010Prop47
 90
       50
102
RTVSPost2010PropOp47
 70
     1
102
RTVSPost2010Prop48
 90
       50
102
RTVSPost2010PropOp48
 70
     1
102
RTVSPost2010Prop49
280
     0
102
RTVSPost2010PropOp49
 70
     1
102
RTVSPost2010Prop50
 90
       50
102
RTVSPost2010PropOp50
 70
     1
102
RTVSPost2010Prop51ColorIndex
 90
      256
102
RTVSPost2010Prop51ColorRGB
 90
-16777216
102
RTVSPost2010PropOp51
 70
     0
102
RTVSPost2010Prop52
140
1.0
102
RTVSPost2010PropOp52
 70
     0
102
RTVSPost2010Prop53
 90
        2
102
RTVSPost2010PropOp53
 70
     1
102
RTVSPost2010Prop54
  1
strokes_ogs.tif
102
RTVSPost2010PropOp54
 70
     1
102
RTVSPost2010Prop55
280
     0
102
RTVSPost2010PropOp55
 70
     1
102
RTVSPost2010Prop56
140
1.0
102
RTVSPost2010PropOp56
 70
     1
102
RTVSPost2010Prop57
140
1.0
102
RTVSPost2010PropOp57
 70
     1
  0
XRECORD
  5
383
102
{ACAD_REACTORS
330
382
102
}
330
382
100
AcDbXrecord
280
     1
102
RTVSPropertyOp0
 70
     1
102
RTVSPropertyOp1
 70
     1
102
RTVSPropertyOp2
 70
     1
102
RTVSPropertyOp3
 70
     1
102
RTVSPropertyOp4
 70
     1
102
RTVSPropertyOp5
 70
     1
102
RTVSPropertyOp6
 70
     1
102
RTVSPropertyOp7
 70
     1
102
RTVSPropertyOp8
 70
     1
102
RTVSPropertyOp9
 70
     1
102
RTVSPropertyOp10
 70
     1
102
RTVSPropertyOp11
 70
     1
102
RTVSPropertyOp12
 70
     1
102
RTVSPropertyOp13
 70
     1
102
RTVSPropertyOp14
 70
     1
102
RTVSPropertyOp15
 70
     1
102
RTVSPropertyOp16
 70
     1
102
RTVSPropertyOp17
 70
     1
102
RTVSPropertyOp18
 70
     1
102
RTVSPropertyOp19
 70
     1
102
RTVSPropertyOp20
 70
     1
102
RTVSPropertyOp21
 70
     1
102
RTVSPropertyOp22
 70
     1
102
RTVSPropertyOp23
 70
     1
102
RTVSPropertyOp24
 70
     1
102
RTVSPropertyOp25
 70
     1
102
RTVSPropertyOp26
 70
     1
102
RTVSPropertyOp27
 70
     1
102
RTVSPropertyOp28
 70
     1
102
RTVSPropertyOp29
 70
     1
102
RTVSPropertyOp30
 70
     1
102
RTVSPropertyOp31
 70
     1
102
RTVSPropertyOp32
 70
     1
102
RTVSPropertyOp33
 70
     1
102
RTVSPropertyOp34
 70
     1
102
RTVSPropertyOp35
 70
     1
102
RTVSPropertyOp36
 70
     1
102
RTVSPropertyOp37
 70
     1
102
RTVSPropertyOp38
 70
     1
102
RTVSPropertyOp39
 70
     1
102
RTVSPropertyOp40
 70
     1
102
RTVSPropertyOp41
 70
     1
102
RTVSPropertyOp42
 70
     1
102
RTVSPropertyOp43
 70
     1
102
RTVSPropertyOp44
 70
     1
102
RTVSPropertyOp45
 70
     1
102
RTVSPropertyOp46
 70
     1
102
RTVSPropertyOp47
 70
     1
102
RTVSPropertyOp48
 70
     1
102
RTVSPropertyOp49
 70
     1
102
RTVSPropertyOp50
 70
     1
102
RTVSPropertyOp51
 70
     0
102
RTVSPropertyOp52
 70
     0
102
RTVSPropertyOp53
 70
     1
102
RTVSPropertyOp54
 70
     1
102
RTVSPropertyOp55
 70
     1
102
RTVSPropertyOp56
 70
     1
102
RTVSPropertyOp57
 70
     1
102
RTVSPost2010Prop28
280
     0
102
RTVSPost2010PropOp28
 70
     1
102
RTVSPost2010Prop29
280
     1
102
RTVSPost2010PropOp29
 70
     1
102
RTVSPost2010Prop30
280
     1
102
RTVSPost2010PropOp30
 70
     1
102
RTVSPost2010Prop31
280
     0
102
RTVSPost2010PropOp31
 70
     1
102
RTVSPost2010Prop32
280
     0
102
RTVSPost2010PropOp32
 70
     1
102
RTVSPost2010Prop33
280
     0
102
RTVSPost2010PropOp33
 70
     1
102
RTVSPost2010Prop34
280
     0
102
RTVSPost2010PropOp34
 70
     1
102
RTVSPost2010Prop35
280
     0
102
RTVSPost2010PropOp35
 70
     1
102
RTVSPost2010Prop36
280
     0
102
RTVSPost2010PropOp36
 70
     1
102
RTVSPost2010Prop37
 90
       50
102
RTVSPost2010PropOp37
 70
     1
102
RTVSPost2010Prop38
140
0.0
102
RTVSPost2010PropOp38
 70
     1
102
RTVSPost2010Prop39
140
1.0
102
RTVSPost2010PropOp39
 70
     1
102
RTVSPost2010Prop40
 90
        0
102
RTVSPost2010PropOp40
 70
     1
102
RTVSPost2010Prop41ColorIndex
 90
       18
102
RTVSPost2010Prop41ColorRGB
 90
        0
102
RTVSPost2010PropOp41
 70
     1
102
RTVSPost2010Prop42
 90
       50
102
RTVSPost2010PropOp42
 70
     1
102
RTVSPost2010Prop43
 90
        3
102
RTVSPost2010PropOp43
 70
     1
102
RTVSPost2010Prop44ColorIndex
 90
        5
102
RTVSPost2010Prop44ColorRGB
 90
      255
102
RTVSPost2010PropOp44
 70
     1
102
RTVSPost2010Prop45
280
     0
102
RTVSPost2010PropOp45
 70
     1
102
RTVSPost2010Prop46
 90
       50
102
RTVSPost2010PropOp46
 70
     1
102
RTVSPost2010Prop47
 90
       50
102
RTVSPost2010PropOp47
 70
     1
102
RTVSPost2010Prop48
 90
       50
102
RTVSPost2010PropOp48
 70
     1
102
RTVSPost2010Prop49
280
     0
102
RTVSPost2010PropOp49
 70
     1
102
RTVSPost2010Prop50
 90
       50
102
RTVSPost2010PropOp50
 70
     1
102
RTVSPost2010Prop51ColorIndex
 90
      256
102
RTVSPost2010Prop51ColorRGB
 90
-16777216
102
RTVSPost2010PropOp51
 70
     0
102
RTVSPost2010Prop52
140
1.0
102
RTVSPost2010PropOp52
 70
     0
102
RTVSPost2010Prop53
 90
        2
102
RTVSPost2010PropOp53
 70
     1
102
RTVSPost2010Prop54
  1
strokes_ogs.tif
102
RTVSPost2010PropOp54
 70
     1
102
RTVSPost2010Prop55
280
     0
102
RTVSPost2010PropOp55
 70
     1
102
RTVSPost2010Prop56
140
1.0
102
RTVSPost2010PropOp56
 70
     1
102
RTVSPost2010Prop57
140
1.0
102
RTVSPost2010PropOp57
 70
     1
  0
XRECORD
  5
3A3
102
{ACAD_REACTORS
330
3A2
102
}
330
3A2
100
AcDbXrecord
280
     1
102
RTVSPropertyOp0
 70
     1
102
RTVSPropertyOp1
 70
     1
102
RTVSPropertyOp2
 70
     1
102
RTVSPropertyOp3
 70
     1
102
RTVSPropertyOp4
 70
     1
102
RTVSPropertyOp5
 70
     1
102
RTVSPropertyOp6
 70
     1
102
RTVSPropertyOp7
 70
     1
102
RTVSPropertyOp8
 70
     1
102
RTVSPropertyOp9
 70
     1
102
RTVSPropertyOp10
 70
     1
102
RTVSPropertyOp11
 70
     1
102
RTVSPropertyOp12
 70
     1
102
RTVSPropertyOp13
 70
     1
102
RTVSPropertyOp14
 70
     1
102
RTVSPropertyOp15
 70
     1
102
RTVSPropertyOp16
 70
     1
102
RTVSPropertyOp17
 70
     1
102
RTVSPropertyOp18
 70
     1
102
RTVSPropertyOp19
 70
     1
102
RTVSPropertyOp20
 70
     1
102
RTVSPropertyOp21
 70
     1
102
RTVSPropertyOp22
 70
     1
102
RTVSPropertyOp23
 70
     1
102
RTVSPropertyOp24
 70
     1
102
RTVSPropertyOp25
 70
     1
102
RTVSPropertyOp26
 70
     1
102
RTVSPropertyOp27
 70
     1
102
RTVSPropertyOp28
 70
     1
102
RTVSPropertyOp29
 70
     1
102
RTVSPropertyOp30
 70
     1
102
RTVSPropertyOp31
 70
     1
102
RTVSPropertyOp32
 70
     1
102
RTVSPropertyOp33
 70
     1
102
RTVSPropertyOp34
 70
     1
102
RTVSPropertyOp35
 70
     1
102
RTVSPropertyOp36
 70
     1
102
RTVSPropertyOp37
 70
     1
102
RTVSPropertyOp38
 70
     1
102
RTVSPropertyOp39
 70
     1
102
RTVSPropertyOp40
 70
     1
102
RTVSPropertyOp41
 70
     1
102
RTVSPropertyOp42
 70
     1
102
RTVSPropertyOp43
 70
     1
102
RTVSPropertyOp44
 70
     1
102
RTVSPropertyOp45
 70
     1
102
RTVSPropertyOp46
 70
     1
102
RTVSPropertyOp47
 70
     1
102
RTVSPropertyOp48
 70
     1
102
RTVSPropertyOp49
 70
     1
102
RTVSPropertyOp50
 70
     1
102
RTVSPropertyOp51
 70
     0
102
RTVSPropertyOp52
 70
     0
102
RTVSPropertyOp53
 70
     1
102
RTVSPropertyOp54
 70
     1
102
RTVSPropertyOp55
 70
     1
102
RTVSPropertyOp56
 70
     1
102
RTVSPropertyOp57
 70
     1
102
RTVSPost2010Prop28
280
     0
102
RTVSPost2010PropOp28
 70
     1
102
RTVSPost2010Prop29
280
     1
102
RTVSPost2010PropOp29
 70
     1
102
RTVSPost2010Prop30
280
     1
102
RTVSPost2010PropOp30
 70
     1
102
RTVSPost2010Prop31
280
     0
102
RTVSPost2010PropOp31
 70
     1
102
RTVSPost2010Prop32
280
     0
102
RTVSPost2010PropOp32
 70
     1
102
RTVSPost2010Prop33
280
     0
102
RTVSPost2010PropOp33
 70
     1
102
RTVSPost2010Prop34
280
     0
102
RTVSPost2010PropOp34
 70
     1
102
RTVSPost2010Prop35
280
     0
102
RTVSPost2010PropOp35
 70
     1
102
RTVSPost2010Prop36
280
     0
102
RTVSPost2010PropOp36
 70
     1
102
RTVSPost2010Prop37
 90
       50
102
RTVSPost2010PropOp37
 70
     1
102
RTVSPost2010Prop38
140
0.0
102
RTVSPost2010PropOp38
 70
     1
102
RTVSPost2010Prop39
140
1.0
102
RTVSPost2010PropOp39
 70
     1
102
RTVSPost2010Prop40
 90
        0
102
RTVSPost2010PropOp40
 70
     1
102
RTVSPost2010Prop41ColorIndex
 90
       18
102
RTVSPost2010Prop41ColorRGB
 90
        0
102
RTVSPost2010PropOp41
 70
     1
102
RTVSPost2010Prop42
 90
       50
102
RTVSPost2010PropOp42
 70
     1
102
RTVSPost2010Prop43
 90
        3
102
RTVSPost2010PropOp43
 70
     1
102
RTVSPost2010Prop44ColorIndex
 90
        5
102
RTVSPost2010Prop44ColorRGB
 90
      255
102
RTVSPost2010PropOp44
 70
     1
102
RTVSPost2010Prop45
280
     0
102
RTVSPost2010PropOp45
 70
     1
102
RTVSPost2010Prop46
 90
       50
102
RTVSPost2010PropOp46
 70
     1
102
RTVSPost2010Prop47
 90
       50
102
RTVSPost2010PropOp47
 70
     1
102
RTVSPost2010Prop48
 90
       50
102
RTVSPost2010PropOp48
 70
     1
102
RTVSPost2010Prop49
280
     0
102
RTVSPost2010PropOp49
 70
     1
102
RTVSPost2010Prop50
 90
       50
102
RTVSPost2010PropOp50
 70
     1
102
RTVSPost2010Prop51ColorIndex
 90
      256
102
RTVSPost2010Prop51ColorRGB
 90
-16777216
102
RTVSPost2010PropOp51
 70
     0
102
RTVSPost2010Prop52
140
1.0
102
RTVSPost2010PropOp52
 70
     0
102
RTVSPost2010Prop53
 90
        2
102
RTVSPost2010PropOp53
 70
     1
102
RTVSPost2010Prop54
  1
strokes_ogs.tif
102
RTVSPost2010PropOp54
 70
     1
102
RTVSPost2010Prop55
280
     0
102
RTVSPost2010PropOp55
 70
     1
102
RTVSPost2010Prop56
140
1.0
102
RTVSPost2010PropOp56
 70
     1
102
RTVSPost2010Prop57
140
1.0
102
RTVSPost2010PropOp57
 70
     1
  0
ENDSEC
  0
EOF
