  0
SECTION
  2
HEADER
  9
$ACADVER
  1
AC1018
  9
$ACADMAINTVER
 70
     0
  9
$DWGCODEPAGE
  3
ANSI_932
  9
$TITLE
  1
16FP-Uzx
  9
$SUBJECT
  1
旗ポール
  9
$AUTHOR
  1
修正tokoro
  9
$KEYWORDS
  1
FP160UZX
  9
$COMMENTS
  1
 
  9
$LASTSAVEDBY
  1
修正tokoro
  9
$CUSTOMPROPERTYTAG
  1
 
  9
$CUSTOMPROPERTY
  1
 
  9
$CUSTOMPROPERTYTAG
  1
 
  9
$CUSTOMPROPERTY
  1
 
  9
$CUSTOMPROPERTYTAG
  1
 
  9
$CUSTOMPROPERTY
  1
 
  9
$CUSTOMPROPERTYTAG
  1
 
  9
$CUSTOMPROPERTY
  1
 
  9
$CUSTOMPROPERTYTAG
  1
 
  9
$CUSTOMPROPERTY
  1
 
  9
$CUSTOMPROPERTYTAG
  1
 
  9
$CUSTOMPROPERTY
  1
 
  9
$CUSTOMPROPERTYTAG
  1
 
  9
$CUSTOMPROPERTY
  1
 
  9
$CUSTOMPROPERTYTAG
  1
 
  9
$CUSTOMPROPERTY
  1
 
  9
$CUSTOMPROPERTYTAG
  1
 
  9
$CUSTOMPROPERTY
  1
 
  9
$CUSTOMPROPERTYTAG
  1
 
  9
$CUSTOMPROPERTY
  1
 
  9
$INSBASE
 10
0.0
 20
0.0
 30
0.0
  9
$EXTMIN
 10
0.0
 20
0.0
 30
0.0
  9
$EXTMAX
 10
420.0
 20
297.0
 30
0.0
  9
$LIMMIN
 10
0.0
 20
0.0
  9
$LIMMAX
 10
420.0
 20
297.0
  9
$ORTHOMODE
 70
     0
  9
$REGENMODE
 70
     1
  9
$FILLMODE
 70
     1
  9
$QTEXTMODE
 70
     0
  9
$MIRRTEXT
 70
     1
  9
$LTSCALE
 40
8.4
  9
$ATTMODE
 70
     1
  9
$TEXTSIZE
 40
0.2
  9
$TRACEWID
 40
0.05
  9
$TEXTSTYLE
  7
STANDARD
  9
$CLAYER
  8
0
  9
$CELTYPE
  6
BYBLOCK
  9
$CECOLOR
 62
   256
  9
$CELTSCALE
 40
1.0
  9
$DISPSILH
 70
     0
  9
$DIMSCALE
 40
1.0
  9
$DIMASZ
 40
0.18
  9
$DIMEXO
 40
0.0625
  9
$DIMDLI
 40
0.38
  9
$DIMRND
 40
0.0
  9
$DIMDLE
 40
0.0
  9
$DIMEXE
 40
0.18
  9
$DIMTP
 40
0.0
  9
$DIMTM
 40
0.0
  9
$DIMTXT
 40
0.18
  9
$DIMCEN
 40
0.09
  9
$DIMTSZ
 40
0.0
  9
$DIMTOL
 70
     0
  9
$DIMLIM
 70
     0
  9
$DIMTIH
 70
     1
  9
$DIMTOH
 70
     1
  9
$DIMSE1
 70
     0
  9
$DIMSE2
 70
     0
  9
$DIMTAD
 70
     0
  9
$DIMZIN
 70
     0
  9
$DIMBLK
  1

  9
$DIMASO
 70
     1
  9
$DIMSHO
 70
     1
  9
$DIMPOST
  1

  9
$DIMAPOST
  1

  9
$DIMALT
 70
     0
  9
$DIMALTD
 70
     2
  9
$DIMALTF
 40
25.4
  9
$DIMLFAC
 40
1.0
  9
$DIMTOFL
 70
     0
  9
$DIMTVP
 40
0.0
  9
$DIMTIX
 70
     0
  9
$DIMSOXD
 70
     0
  9
$DIMSAH
 70
     0
  9
$DIMBLK1
  1

  9
$DIMBLK2
  1

  9
$DIMSTYLE
  2
STANDARD
  9
$DIMCLRD
 70
     0
  9
$DIMCLRE
 70
     0
  9
$DIMCLRT
 70
     0
  9
$DIMTFAC
 40
1.0
  9
$DIMGAP
 40
0.09
  9
$DIMJUST
 70
     0
  9
$DIMSD1
 70
     0
  9
$DIMSD2
 70
     0
  9
$DIMTOLJ
 70
     1
  9
$DIMTZIN
 70
     0
  9
$DIMALTZ
 70
     0
  9
$DIMALTTZ
 70
     0
  9
$DIMUPT
 70
     0
  9
$DIMDEC
 70
     4
  9
$DIMTDEC
 70
     4
  9
$DIMALTU
 70
     2
  9
$DIMALTTD
 70
     2
  9
$DIMTXSTY
  7
STANDARD
  9
$DIMAUNIT
 70
     0
  9
$DIMADEC
 70
     0
  9
$DIMALTRND
 40
0.0
  9
$DIMAZIN
 70
     0
  9
$DIMDSEP
 70
    46
  9
$DIMATFIT
 70
     3
  9
$DIMFRAC
 70
     0
  9
$DIMLDRBLK
  1

  9
$DIMLUNIT
 70
     2
  9
$DIMLWD
 70
    -2
  9
$DIMLWE
 70
    -2
  9
$DIMTMOVE
 70
     0
  9
$LUNITS
 70
     2
  9
$LUPREC
 70
     4
  9
$SKETCHINC
 40
0.1
  9
$FILLETRAD
 40
0.5
  9
$AUNITS
 70
     0
  9
$AUPREC
 70
     0
  9
$MENU
  1
.
  9
$ELEVATION
 40
0.0
  9
$PELEVATION
 40
0.0
  9
$THICKNESS
 40
0.0
  9
$LIMCHECK
 70
     0
  9
$CHAMFERA
 40
0.0
  9
$CHAMFERB
 40
0.0
  9
$CHAMFERC
 40
0.0
  9
$CHAMFERD
 40
0.0
  9
$SKPOLY
 70
     0
  9
$TDCREATE
 40
2447893.375
  9
$TDUCREATE
 40
0.0
  9
$TDUPDATE
 40
2460013.769119329
  9
$TDUUPDATE
 40
2460013.394119329
  9
$TDINDWG
 40
0.0
  9
$TDUSRTIMER
 40
0.0
  9
$USRTIMER
 70
     1
  9
$ANGBASE
 50
0.0
  9
$ANGDIR
 70
     0
  9
$PDMODE
 70
     0
  9
$PDSIZE
 40
0.0
  9
$PLINEWID
 40
0.0
  9
$SPLFRAME
 70
     0
  9
$SPLINETYPE
 70
     6
  9
$SPLINESEGS
 70
     8
  9
$HANDSEED
  5
436
  9
$SURFTAB1
 70
     6
  9
$SURFTAB2
 70
     6
  9
$SURFTYPE
 70
     6
  9
$SURFU
 70
     6
  9
$SURFV
 70
     6
  9
$UCSBASE
  2

  9
$UCSNAME
  2

  9
$UCSORG
 10
0.0
 20
0.0
 30
0.0
  9
$UCSXDIR
 10
1.0
 20
0.0
 30
0.0
  9
$UCSYDIR
 10
0.0
 20
1.0
 30
0.0
  9
$UCSORTHOREF
  2

  9
$UCSORTHOVIEW
 70
     0
  9
$UCSORGTOP
 10
0.0
 20
0.0
 30
0.0
  9
$UCSORGBOTTOM
 10
0.0
 20
0.0
 30
0.0
  9
$UCSORGLEFT
 10
0.0
 20
0.0
 30
0.0
  9
$UCSORGRIGHT
 10
0.0
 20
0.0
 30
0.0
  9
$UCSORGFRONT
 10
0.0
 20
0.0
 30
0.0
  9
$UCSORGBACK
 10
0.0
 20
0.0
 30
0.0
  9
$PUCSBASE
  2

  9
$PUCSNAME
  2

  9
$PUCSORG
 10
0.0
 20
0.0
 30
0.0
  9
$PUCSXDIR
 10
1.0
 20
0.0
 30
0.0
  9
$PUCSYDIR
 10
0.0
 20
1.0
 30
0.0
  9
$PUCSORTHOREF
  2

  9
$PUCSORTHOVIEW
 70
     0
  9
$PUCSORGTOP
 10
0.0
 20
0.0
 30
0.0
  9
$PUCSORGBOTTOM
 10
0.0
 20
0.0
 30
0.0
  9
$PUCSORGLEFT
 10
0.0
 20
0.0
 30
0.0
  9
$PUCSORGRIGHT
 10
0.0
 20
0.0
 30
0.0
  9
$PUCSORGFRONT
 10
0.0
 20
0.0
 30
0.0
  9
$PUCSORGBACK
 10
0.0
 20
0.0
 30
0.0
  9
$USERI1
 70
     0
  9
$USERI2
 70
     0
  9
$USERI3
 70
     0
  9
$USERI4
 70
     0
  9
$USERI5
 70
     0
  9
$USERR1
 40
0.0
  9
$USERR2
 40
0.0
  9
$USERR3
 40
0.0
  9
$USERR4
 40
0.0
  9
$USERR5
 40
0.0
  9
$WORLDVIEW
 70
     1
  9
$SHADEDGE
 70
     3
  9
$SHADEDIF
 70
    70
  9
$TILEMODE
 70
     1
  9
$MAXACTVP
 70
    64
  9
$PINSBASE
 10
0.0
 20
0.0
 30
0.0
  9
$PLIMCHECK
 70
     0
  9
$PEXTMIN
 10
1.000000000000000E+20
 20
1.000000000000000E+20
 30
1.000000000000000E+20
  9
$PEXTMAX
 10
-1.000000000000000E+20
 20
-1.000000000000000E+20
 30
-1.000000000000000E+20
  9
$PLIMMIN
 10
0.0
 20
0.0
  9
$PLIMMAX
 10
12.0
 20
9.0
  9
$UNITMODE
 70
     0
  9
$VISRETAIN
 70
     1
  9
$PLINEGEN
 70
     0
  9
$PSLTSCALE
 70
     1
  9
$TREEDEPTH
 70
  3020
  9
$CMLSTYLE
  2

  9
$CMLJUST
 70
     0
  9
$CMLSCALE
 40
1.0
  9
$PROXYGRAPHICS
 70
     1
  9
$MEASUREMENT
 70
     0
  9
$CELWEIGHT
370
    -1
  9
$ENDCAPS
280
     0
  9
$JOINSTYLE
280
     0
  9
$LWDISPLAY
290
     0
  9
$INSUNITS
 70
     0
  9
$HYPERLINKBASE
  1

  9
$STYLESHEET
  1

  9
$XEDIT
290
     1
  9
$CEPSNTYPE
380
     0
  9
$PSTYLEMODE
290
     1
  9
$FINGERPRINTGUID
  2
{2EE89F4D-855F-4058-99A1-5D8C6D578488}
  9
$VERSIONGUID
  2
{FAEB1C32-E019-11D5-929B-00C0DF256EC4}
  9
$EXTNAMES
290
     1
  9
$PSVPSCALE
 40
0.0
  9
$OLESTARTUP
290
     0
  9
$SORTENTS
280
   127
  9
$INDEXCTL
280
     0
  9
$HIDETEXT
280
     1
  9
$XCLIPFRAME
290
     0
  9
$HALOGAP
280
     0
  9
$OBSCOLOR
 70
   257
  9
$OBSLTYPE
280
     0
  9
$INTERSECTIONDISPLAY
280
     0
  9
$INTERSECTIONCOLOR
 70
   257
  9
$DIMASSOC
280
     2
  9
$PROJECTNAME
  1

  0
ENDSEC
  0
SECTION
  2
CLASSES
  0
CLASS
  1
SCALE
  2
AcDbScale
  3
ObjectDBX Classes
 90
     1153
 91
        4
280
     0
281
     0
  0
CLASS
  1
VISUALSTYLE
  2
AcDbVisualStyle
  3
ObjectDBX Classes
 90
     4095
 91
        4
280
     0
281
     0
  0
CLASS
  1
MATERIAL
  2
AcDbMaterial
  3
ObjectDBX Classes
 90
     1153
 91
        4
280
     0
281
     0
  0
CLASS
  1
ACDBDICTIONARYWDFLT
  2
AcDbDictionaryWithDefault
  3
ObjectDBX Classes
 90
        0
 91
        4
280
     0
281
     0
  0
CLASS
  1
DICTIONARYVAR
  2
AcDbDictionaryVar
  3
ObjectDBX Classes
 90
        0
 91
        4
280
     0
281
     0
  0
ENDSEC
  0
SECTION
  2
TABLES
  0
TABLE
  2
VPORT
  5
8
102
{ACAD_XDICTIONARY
360
3F7
102
}
330
0
100
AcDbSymbolTable
 70
     1
  0
VPORT
  5
3B2
330
8
100
AcDbSymbolTableRecord
100
AcDbViewportTableRecord
  2
*ACTIVE
 70
     0
 10
0.0
 20
0.0
 11
1.0
 21
1.0
 12
210.0
 22
148.5
 13
0.0
 23
0.0
 14
1.0
 24
1.0
 15
0.0
 25
0.0
 16
0.0
 26
0.0
 36
1.0
 17
0.0
 27
0.0
 37
0.0
 40
420.0
 41
1.4787878787879
 42
50.0
 43
0.0
 44
0.0
 50
0.0
 51
0.0
 71
     0
 72
   100
 73
     1
 74
     1
 75
     0
 76
     0
 77
     0
 78
     0
281
     0
 65
     1
110
0.0
120
0.0
130
0.0
111
1.0
121
0.0
131
0.0
112
0.0
122
1.0
132
0.0
 79
     0
146
0.0
  0
ENDTAB
  0
TABLE
  2
LTYPE
  5
5
330
0
100
AcDbSymbolTable
 70
    25
  0
LTYPE
  5
12
330
5
100
AcDbSymbolTableRecord
100
AcDbLinetypeTableRecord
  2
BYBLOCK
 70
     0
  3

 72
    65
 73
     0
 40
0.0
  0
LTYPE
  5
13
330
5
100
AcDbSymbolTableRecord
100
AcDbLinetypeTableRecord
  2
BYLAYER
 70
     0
  3

 72
    65
 73
     0
 40
0.0
  0
LTYPE
  5
14
330
5
100
AcDbSymbolTableRecord
100
AcDbLinetypeTableRecord
  2
CONTINUOUS
 70
     0
  3
Solid line
 72
    65
 73
     0
 40
0.0
  0
LTYPE
  5
20
330
5
100
AcDbSymbolTableRecord
100
AcDbLinetypeTableRecord
  2
BORDER
 70
     0
  3
__ __ . __ __ . __ __ . __ __ . __ __ . __ __ .
 72
    65
 73
     6
 40
1.75
 49
0.5
 74
     0
 49
-0.25
 74
     0
 49
0.5
 74
     0
 49
-0.25
 74
     0
 49
0.0
 74
     0
 49
-0.25
 74
     0
  0
LTYPE
  5
21
330
5
100
AcDbSymbolTableRecord
100
AcDbLinetypeTableRecord
  2
BORDER2
 70
     0
  3
__.__.__.__.__.__.__.__.__.__.__.__.__.__.__.__
 72
    65
 73
     6
 40
0.875
 49
0.25
 74
     0
 49
-0.125
 74
     0
 49
0.25
 74
     0
 49
-0.125
 74
     0
 49
0.0
 74
     0
 49
-0.125
 74
     0
  0
LTYPE
  5
22
330
5
100
AcDbSymbolTableRecord
100
AcDbLinetypeTableRecord
  2
BORDERX2
 70
     0
  3
____  ____  .  ____  ____  .  ____  ____  .  __
 72
    65
 73
     6
 40
3.5
 49
1.0
 74
     0
 49
-0.5
 74
     0
 49
1.0
 74
     0
 49
-0.5
 74
     0
 49
0.0
 74
     0
 49
-0.5
 74
     0
  0
LTYPE
  5
23
330
5
100
AcDbSymbolTableRecord
100
AcDbLinetypeTableRecord
  2
CENTER
 70
     0
  3
____ _ ____ _ ____ _ ____ _ ____ _ ____ _ ____ 
 72
    65
 73
     4
 40
2.0
 49
1.25
 74
     0
 49
-0.25
 74
     0
 49
0.25
 74
     0
 49
-0.25
 74
     0
  0
LTYPE
  5
24
330
5
100
AcDbSymbolTableRecord
100
AcDbLinetypeTableRecord
  2
CENTER2
 70
     0
  3
___ _ ___ _ ___ _ ___ _ ___ _ ___ _ ___ _ ___ _
 72
    65
 73
     4
 40
1.125
 49
0.75
 74
     0
 49
-0.125
 74
     0
 49
0.125
 74
     0
 49
-0.125
 74
     0
  0
LTYPE
  5
25
330
5
100
AcDbSymbolTableRecord
100
AcDbLinetypeTableRecord
  2
CENTERX2
 70
     0
  3
________  __  ________  __  ________  __  _____
 72
    65
 73
     4
 40
4.0
 49
2.5
 74
     0
 49
-0.5
 74
     0
 49
0.5
 74
     0
 49
-0.5
 74
     0
  0
LTYPE
  5
26
330
5
100
AcDbSymbolTableRecord
100
AcDbLinetypeTableRecord
  2
DASHDOT
 70
     0
  3
__ . __ . __ . __ . __ . __ . __ . __ . __ . __
 72
    65
 73
     4
 40
1.0
 49
0.5
 74
     0
 49
-0.25
 74
     0
 49
0.0
 74
     0
 49
-0.25
 74
     0
  0
LTYPE
  5
27
330
5
100
AcDbSymbolTableRecord
100
AcDbLinetypeTableRecord
  2
DASHDOT2
 70
     0
  3
_._._._._._._._._._._._._._._._._._._._._._._._
 72
    65
 73
     4
 40
0.5
 49
0.25
 74
     0
 49
-0.125
 74
     0
 49
0.0
 74
     0
 49
-0.125
 74
     0
  0
LTYPE
  5
28
330
5
100
AcDbSymbolTableRecord
100
AcDbLinetypeTableRecord
  2
DASHDOTX2
 70
     0
  3
____  .  ____  .  ____  .  ____  .  ____  .  __
 72
    65
 73
     4
 40
2.0
 49
1.0
 74
     0
 49
-0.5
 74
     0
 49
0.0
 74
     0
 49
-0.5
 74
     0
  0
LTYPE
  5
29
330
5
100
AcDbSymbolTableRecord
100
AcDbLinetypeTableRecord
  2
DASHED
 70
     0
  3
__ __ __ __ __ __ __ __ __ __ __ __ __ __ __ __
 72
    65
 73
     2
 40
0.75
 49
0.5
 74
     0
 49
-0.25
 74
     0
  0
LTYPE
  5
2A
330
5
100
AcDbSymbolTableRecord
100
AcDbLinetypeTableRecord
  2
DASHED2
 70
     0
  3
_ _ _ _ _ _ _ _ _ _ _ _ _ _ _ _ _ _ _ _ _ _ _ _
 72
    65
 73
     2
 40
0.375
 49
0.25
 74
     0
 49
-0.125
 74
     0
  0
LTYPE
  5
2B
330
5
100
AcDbSymbolTableRecord
100
AcDbLinetypeTableRecord
  2
DASHEDX2
 70
     0
  3
____  ____  ____  ____  ____  ____  ____  ____ 
 72
    65
 73
     2
 40
1.5
 49
1.0
 74
     0
 49
-0.5
 74
     0
  0
LTYPE
  5
2C
330
5
100
AcDbSymbolTableRecord
100
AcDbLinetypeTableRecord
  2
DIVIDE
 70
     0
  3
____ . . ____ . . ____ . . ____ . . ____ . . __
 72
    65
 73
     6
 40
1.25
 49
0.5
 74
     0
 49
-0.25
 74
     0
 49
0.0
 74
     0
 49
-0.25
 74
     0
 49
0.0
 74
     0
 49
-0.25
 74
     0
  0
LTYPE
  5
2D
330
5
100
AcDbSymbolTableRecord
100
AcDbLinetypeTableRecord
  2
DIVIDE2
 70
     0
  3
__..__..__..__..__..__..__..__..__..__..__..__.
 72
    65
 73
     6
 40
0.625
 49
0.25
 74
     0
 49
-0.125
 74
     0
 49
0.0
 74
     0
 49
-0.125
 74
     0
 49
0.0
 74
     0
 49
-0.125
 74
     0
  0
LTYPE
  5
2E
330
5
100
AcDbSymbolTableRecord
100
AcDbLinetypeTableRecord
  2
DIVIDEX2
 70
     0
  3
________  .  .  ________  .  .  ________  .  . 
 72
    65
 73
     6
 40
2.5
 49
1.0
 74
     0
 49
-0.5
 74
     0
 49
0.0
 74
     0
 49
-0.5
 74
     0
 49
0.0
 74
     0
 49
-0.5
 74
     0
  0
LTYPE
  5
2F
330
5
100
AcDbSymbolTableRecord
100
AcDbLinetypeTableRecord
  2
DOT
 70
     0
  3
. . . . . . . . . . . . . . . . . . . . . . . .
 72
    65
 73
     2
 40
0.25
 49
0.0
 74
     0
 49
-0.25
 74
     0
  0
LTYPE
  5
30
330
5
100
AcDbSymbolTableRecord
100
AcDbLinetypeTableRecord
  2
DOT2
 70
     0
  3
...............................................
 72
    65
 73
     2
 40
0.125
 49
0.0
 74
     0
 49
-0.125
 74
     0
  0
LTYPE
  5
31
330
5
100
AcDbSymbolTableRecord
100
AcDbLinetypeTableRecord
  2
DOTX2
 70
     0
  3
.  .  .  .  .  .  .  .  .  .  .  .  .  .  .  . 
 72
    65
 73
     2
 40
0.5
 49
0.0
 74
     0
 49
-0.5
 74
     0
  0
LTYPE
  5
32
330
5
100
AcDbSymbolTableRecord
100
AcDbLinetypeTableRecord
  2
HIDDEN
 70
     0
  3
__ __ __ __ __ __ __ __ __ __ __ __ __ __ __ __
 72
    65
 73
     2
 40
0.375
 49
0.25
 74
     0
 49
-0.125
 74
     0
  0
LTYPE
  5
33
330
5
100
AcDbSymbolTableRecord
100
AcDbLinetypeTableRecord
  2
HIDDEN2
 70
     0
  3
_ _ _ _ _ _ _ _ _ _ _ _ _ _ _ _ _ _ _ _ _ _ _ _
 72
    65
 73
     2
 40
0.1875
 49
0.125
 74
     0
 49
-0.0625
 74
     0
  0
LTYPE
  5
34
330
5
100
AcDbSymbolTableRecord
100
AcDbLinetypeTableRecord
  2
HIDDENX2
 70
     0
  3
____ ____ ____ ____ ____ ____ ____ ____ ____ __
 72
    65
 73
     2
 40
0.75
 49
0.5
 74
     0
 49
-0.25
 74
     0
  0
LTYPE
  5
35
330
5
100
AcDbSymbolTableRecord
100
AcDbLinetypeTableRecord
  2
PHANTOM
 70
     0
  3
______  __  __  ______  __  __  ______  __  __ 
 72
    65
 73
     6
 40
2.5
 49
1.25
 74
     0
 49
-0.25
 74
     0
 49
0.25
 74
     0
 49
-0.25
 74
     0
 49
0.25
 74
     0
 49
-0.25
 74
     0
  0
LTYPE
  5
36
330
5
100
AcDbSymbolTableRecord
100
AcDbLinetypeTableRecord
  2
PHANTOM2
 70
     0
  3
___ _ _ ___ _ _ ___ _ _ ___ _ _ ___ _ _ ___ _ _
 72
    65
 73
     6
 40
1.25
 49
0.625
 74
     0
 49
-0.125
 74
     0
 49
0.125
 74
     0
 49
-0.125
 74
     0
 49
0.125
 74
     0
 49
-0.125
 74
     0
  0
LTYPE
  5
37
330
5
100
AcDbSymbolTableRecord
100
AcDbLinetypeTableRecord
  2
PHANTOMX2
 70
     0
  3
____________    ____    ____    ____________   
 72
    65
 73
     6
 40
5.0
 49
2.5
 74
     0
 49
-0.5
 74
     0
 49
0.5
 74
     0
 49
-0.5
 74
     0
 49
0.5
 74
     0
 49
-0.5
 74
     0
  0
ENDTAB
  0
TABLE
  2
LAYER
  5
2
330
0
100
AcDbSymbolTable
 70
     2
  0
LAYER
  5
E
330
2
100
AcDbSymbolTableRecord
100
AcDbLayerTableRecord
  2
0
 70
     0
 62
     7
  6
CONTINUOUS
370
    -3
390
3F6
  0
LAYER
  5
39
330
2
100
AcDbSymbolTableRecord
100
AcDbLayerTableRecord
  2
LEVEL001
 70
     0
 62
     7
  6
CONTINUOUS
370
    -3
390
3F6
  0
ENDTAB
  0
TABLE
  2
STYLE
  5
3
330
0
100
AcDbSymbolTable
 70
     2
  0
STYLE
  5
F
330
3
100
AcDbSymbolTableRecord
100
AcDbTextStyleTableRecord
  2
STANDARD
 70
     0
 40
0.0
 41
1.0
 50
0.0
 71
     0
 42
0.2
  3
TXT
  4
BIGFONT
  0
STYLE
  5
38
330
3
100
AcDbSymbolTableRecord
100
AcDbTextStyleTableRecord
  2
STANDARD1
 70
     4
 40
0.0
 41
1.0
 50
0.0
 71
     0
 42
0.2
  3
TXT
  4
BIGFONT
  0
ENDTAB
  0
TABLE
  2
VIEW
  5
6
330
0
100
AcDbSymbolTable
 70
     0
  0
ENDTAB
  0
TABLE
  2
UCS
  5
7
330
0
100
AcDbSymbolTable
 70
     0
  0
ENDTAB
  0
TABLE
  2
APPID
  5
9
330
0
100
AcDbSymbolTable
 70
     1
  0
APPID
  5
10
330
9
100
AcDbSymbolTableRecord
100
AcDbRegAppTableRecord
  2
ACAD
 70
     0
  0
ENDTAB
  0
TABLE
  2
DIMSTYLE
  5
A
330
0
100
AcDbSymbolTable
 70
     1
100
AcDbDimStyleTable
  0
DIMSTYLE
105
1D
102
{ACAD_REACTORS
330
1B
102
}
330
A
100
AcDbSymbolTableRecord
100
AcDbDimStyleTableRecord
  2
STANDARD
 70
     0
178
     0
340
F
  0
ENDTAB
  0
TABLE
  2
BLOCK_RECORD
  5
1
330
0
100
AcDbSymbolTable
 70
     0
  0
BLOCK_RECORD
  5
18
330
1
100
AcDbSymbolTableRecord
100
AcDbBlockTableRecord
  2
*MODEL_SPACE
340
3B4
  0
BLOCK_RECORD
  5
15
330
1
100
AcDbSymbolTableRecord
100
AcDbBlockTableRecord
  2
*PAPER_SPACE
340
3B5
  0
ENDTAB
  0
ENDSEC
  0
SECTION
  2
BLOCKS
  0
BLOCK
  5
19
330
18
100
AcDbEntity
  8
0
100
AcDbBlockBegin
  2
*MODEL_SPACE
 70
     0
 10
0.0
 20
0.0
 30
0.0
  3
*MODEL_SPACE
  1
*MODEL_SPACE
  0
ENDBLK
  5
1A
330
18
100
AcDbEntity
  8
0
100
AcDbBlockEnd
  0
BLOCK
  5
16
330
15
100
AcDbEntity
 67
     1
  8
0
100
AcDbBlockBegin
  2
*PAPER_SPACE
 70
     0
 10
0.0
 20
0.0
 30
0.0
  3
*PAPER_SPACE
  1
*PAPER_SPACE
  0
ENDBLK
  5
17
330
15
100
AcDbEntity
 67
     1
  8
0
100
AcDbBlockEnd
  0
ENDSEC
  0
SECTION
  2
ENTITIES
  0
LWPOLYLINE
  5
3A
330
18
100
AcDbEntity
  8
LEVEL001
  6
Continuous
 62
     3
370
    20
100
AcDbPolyline
 90
        4
 70
     1
 43
0.0
 10
10.0
 20
10.0
 10
410.0
 20
10.0
 10
410.0
 20
287.0
 10
10.0
 20
287.0
  0
LWPOLYLINE
  5
3B
330
18
100
AcDbEntity
  8
LEVEL001
  6
Continuous
 62
     3
370
    20
100
AcDbPolyline
 90
        4
 70
     1
 43
0.0
 10
346.0
 20
10.0
 10
410.0
 20
10.0
 10
410.0
 20
287.0
 10
346.0
 20
287.0
  0
LINE
  5
3C
330
18
100
AcDbEntity
  8
LEVEL001
  6
Continuous
 62
     3
370
    20
100
AcDbLine
 10
346.0
 20
20.0
 30
0.0
 11
410.0
 21
20.0
 31
0.0
  0
LINE
  5
3D
330
18
100
AcDbEntity
  8
LEVEL001
  6
Continuous
 62
     3
370
    20
100
AcDbLine
 10
346.0
 20
30.0
 30
0.0
 11
410.0
 21
30.0
 31
0.0
  0
LINE
  5
3E
330
18
100
AcDbEntity
  8
LEVEL001
  6
Continuous
 62
     3
370
    20
100
AcDbLine
 10
346.0
 20
40.0
 30
0.0
 11
410.0
 21
40.0
 31
0.0
  0
LINE
  5
3F
330
18
100
AcDbEntity
  8
LEVEL001
  6
Continuous
 62
     3
370
    20
100
AcDbLine
 10
346.0
 20
50.0
 30
0.0
 11
410.0
 21
50.0
 31
0.0
  0
LINE
  5
40
330
18
100
AcDbEntity
  8
LEVEL001
  6
Continuous
 62
     3
370
    20
100
AcDbLine
 10
346.0
 20
60.0
 30
0.0
 11
410.0
 21
60.0
 31
0.0
  0
LINE
  5
41
330
18
100
AcDbEntity
  8
LEVEL001
  6
Continuous
 62
     3
370
    20
100
AcDbLine
 10
346.0
 20
90.0
 30
0.0
 11
410.0
 21
90.0
 31
0.0
  0
LINE
  5
42
330
18
100
AcDbEntity
  8
LEVEL001
  6
Continuous
 62
     3
370
    20
100
AcDbLine
 10
346.0
 20
85.0
 30
0.0
 11
410.0
 21
85.0
 31
0.0
  0
LINE
  5
43
330
18
100
AcDbEntity
  8
LEVEL001
  6
Continuous
 62
     3
370
    20
100
AcDbLine
 10
346.0
 20
95.0
 30
0.0
 11
410.0
 21
95.0
 31
0.0
  0
LINE
  5
44
330
18
100
AcDbEntity
  8
LEVEL001
  6
Continuous
 62
     3
370
    20
100
AcDbLine
 10
346.0
 20
100.0
 30
0.0
 11
410.0
 21
100.0
 31
0.0
  0
LINE
  5
45
330
18
100
AcDbEntity
  8
LEVEL001
  6
Continuous
 62
     3
370
    20
100
AcDbLine
 10
346.0
 20
110.0
 30
0.0
 11
410.0
 21
110.0
 31
0.0
  0
LINE
  5
46
330
18
100
AcDbEntity
  8
LEVEL001
  6
Continuous
 62
     3
370
    20
100
AcDbLine
 10
346.0
 20
120.0
 30
0.0
 11
410.0
 21
120.0
 31
0.0
  0
LINE
  5
47
330
18
100
AcDbEntity
  8
LEVEL001
  6
Continuous
 62
     3
370
    20
100
AcDbLine
 10
346.0
 20
130.0
 30
0.0
 11
410.0
 21
130.0
 31
0.0
  0
LINE
  5
48
330
18
100
AcDbEntity
  8
LEVEL001
  6
Continuous
 62
     3
370
    20
100
AcDbLine
 10
354.0
 20
100.0
 30
0.0
 11
354.0
 21
80.0
 31
0.0
  0
LINE
  5
49
330
18
100
AcDbEntity
  8
LEVEL001
  6
Continuous
 62
     3
370
    20
100
AcDbLine
 10
346.0
 20
105.0
 30
0.0
 11
410.0
 21
105.0
 31
0.0
  0
LINE
  5
4A
330
18
100
AcDbEntity
  8
LEVEL001
  6
Continuous
 62
     3
370
    20
100
AcDbLine
 10
346.0
 20
115.0
 30
0.0
 11
410.0
 21
115.0
 31
0.0
  0
LINE
  5
4B
330
18
100
AcDbEntity
  8
LEVEL001
  6
Continuous
 62
     3
370
    20
100
AcDbLine
 10
346.0
 20
125.0
 30
0.0
 11
410.0
 21
125.0
 31
0.0
  0
LINE
  5
4C
330
18
100
AcDbEntity
  8
LEVEL001
  6
Continuous
 62
     3
370
    20
100
AcDbLine
 10
380.0
 20
100.0
 30
0.0
 11
380.0
 21
85.0
 31
0.0
  0
LINE
  5
4D
330
18
100
AcDbEntity
  8
LEVEL001
  6
Continuous
 62
     3
370
    20
100
AcDbLine
 10
346.0
 20
80.0
 30
0.0
 11
410.0
 21
80.0
 31
0.0
  0
TEXT
  5
4E
330
18
100
AcDbEntity
  8
LEVEL001
 62
     3
370
    20
100
AcDbText
 10
346.25
 20
111.0
 30
0.0
 40
3.0
  1
１－２
 41
0.5
 72
     5
 11
350.75
 21
111.0
 31
0.0
100
AcDbText
  0
TEXT
  5
4F
330
18
100
AcDbEntity
  8
LEVEL001
 62
     3
370
    20
100
AcDbText
 10
346.25
 20
106.0
 30
0.0
 40
3.0
  1
１－１
 41
0.5
 72
     5
 11
350.75
 21
106.0
 31
0.0
100
AcDbText
  0
TEXT
  5
50
330
18
100
AcDbEntity
  8
LEVEL001
 62
     3
370
    20
100
AcDbText
 10
382.75
 20
106.0
 30
0.0
 40
3.0
  1
１
 41
0.5
 72
     5
 11
384.25
 21
106.0
 31
0.0
100
AcDbText
  0
TEXT
  5
51
330
18
100
AcDbEntity
  8
LEVEL001
 62
     3
370
    20
100
AcDbText
 10
382.75
 20
111.0
 30
0.0
 40
3.0
  1
１
 41
0.5
 72
     5
 11
384.25
 21
111.0
 31
0.0
100
AcDbText
  0
TEXT
  5
52
330
18
100
AcDbEntity
  8
LEVEL001
 62
     3
370
    20
100
AcDbText
 10
347.0
 20
56.0
 30
0.0
 40
3.0
  1
品名
 72
     5
 11
353.0
 21
56.0
 31
0.0
100
AcDbText
  0
TEXT
  5
53
330
18
100
AcDbEntity
  8
LEVEL001
 62
     3
370
    20
100
AcDbText
 10
347.0
 20
46.0
 30
0.0
 40
3.0
  1
型式
 72
     5
 11
353.0
 21
46.0
 31
0.0
100
AcDbText
  0
TEXT
  5
54
330
18
100
AcDbEntity
  8
LEVEL001
 62
     3
370
    20
100
AcDbText
 10
347.0
 20
36.0
 30
0.0
 40
3.0
  1
品名コード
 72
     5
 11
362.0
 21
36.0
 31
0.0
100
AcDbText
  0
TEXT
  5
55
330
18
100
AcDbEntity
  8
LEVEL001
 62
     3
370
    20
100
AcDbText
 10
347.0
 20
26.0
 30
0.0
 40
3.0
  1
図面Ｎｏ．
 72
     5
 11
362.0
 21
26.0
 31
0.0
100
AcDbText
  0
TEXT
  5
56
330
18
100
AcDbEntity
  8
LEVEL001
 62
     3
370
    20
100
AcDbText
 10
347.0
 20
76.0
 30
0.0
 40
3.0
  1
件名
 72
     5
 11
353.0
 21
76.0
 31
0.0
100
AcDbText
  0
TEXT
  5
57
330
18
100
AcDbEntity
  8
LEVEL001
 62
     3
370
    20
100
AcDbText
 10
346.75
 20
81.0
 30
0.0
 40
3.0
  1
尺度
 72
     5
 11
352.75
 21
81.0
 31
0.0
100
AcDbText
  0
TEXT
  5
58
330
18
100
AcDbEntity
  8
LEVEL001
 62
     3
370
    20
100
AcDbText
 10
346.75
 20
86.0
 30
0.0
 40
3.0
  1
承認
 72
     5
 11
352.75
 21
86.0
 31
0.0
100
AcDbText
  0
TEXT
  5
59
330
18
100
AcDbEntity
  8
LEVEL001
 62
     3
370
    20
100
AcDbText
 10
346.75
 20
91.0
 30
0.0
 40
3.0
  1
審査
 72
     5
 11
352.75
 21
91.0
 31
0.0
100
AcDbText
  0
TEXT
  5
5A
330
18
100
AcDbEntity
  8
LEVEL001
 62
     3
370
    20
100
AcDbText
 10
346.75
 20
96.0
 30
0.0
 40
3.0
  1
作成
 72
     5
 11
352.75
 21
96.0
 31
0.0
100
AcDbText
  0
TEXT
  5
5B
330
18
100
AcDbEntity
  8
LEVEL001
 62
     3
370
    20
100
AcDbText
 10
346.0
 20
101.0
 30
0.0
 40
3.0
  1
品番
 41
0.83333333333333
 72
     5
 11
351.0
 21
101.0
 31
0.0
100
AcDbText
  0
TEXT
  5
5C
330
18
100
AcDbEntity
  8
LEVEL001
 62
     3
370
    20
100
AcDbText
 10
357.5
 20
101.0
 30
0.0
 40
3.0
  1
品　　　名
 72
     5
 11
372.5
 21
101.0
 31
0.0
100
AcDbText
  0
TEXT
  5
5D
330
18
100
AcDbEntity
  8
LEVEL001
 62
     3
370
    20
100
AcDbText
 10
381.0
 20
101.0
 30
0.0
 40
3.0
  1
数量
 41
0.83333333333333
 72
     5
 11
386.0
 21
101.0
 31
0.0
100
AcDbText
  0
TEXT
  5
5E
330
18
100
AcDbEntity
  8
LEVEL001
 62
     3
370
    20
100
AcDbText
 10
389.5
 20
101.0
 30
0.0
 40
3.0
  1
材　　　質
 72
     5
 11
404.5
 21
101.0
 31
0.0
100
AcDbText
  0
TEXT
  5
5F
330
18
100
AcDbEntity
  8
LEVEL001
 62
     3
370
    20
100
AcDbText
 10
356.6
 20
51.0
 30
0.0
 40
4.0
  1
アルミニウム合金製旗用ポール
 41
0.875
 72
     5
 11
405.6
 21
51.0
 31
0.0
100
AcDbText
  0
TEXT
  5
60
330
18
100
AcDbEntity
  8
LEVEL001
 62
     3
370
    20
100
AcDbText
 10
352.0
 20
106.0
 30
0.0
 40
3.0
  1
根元ポール
 72
     5
 11
367.0
 21
106.0
 31
0.0
100
AcDbText
  0
TEXT
  5
61
330
18
100
AcDbEntity
  8
LEVEL001
 62
     3
370
    20
100
AcDbText
 10
292.21371743763
 20
50.619661097122
 30
0.0
 40
5.0
  1
Ｓ＝１：５
 41
0.58
 72
     5
 11
306.71371743763
 21
50.619661097122
 31
0.0
100
AcDbText
  0
TEXT
  5
62
330
18
100
AcDbEntity
  8
LEVEL001
 62
     3
370
    20
100
AcDbText
 10
274.96371743763
 20
56.619661097122
 30
0.0
 40
5.0
  1
グランドカバー詳細
 41
1.0888888888889
 72
     5
 11
323.96371743763
 21
56.619661097122
 31
0.0
100
AcDbText
  0
LINE
  5
63
330
18
100
AcDbEntity
  8
LEVEL001
  6
Continuous
 62
     3
370
    20
100
AcDbLine
 10
272.46371743763
 20
55.619661097122
 30
0.0
 11
326.46371743763
 21
55.619661097122
 31
0.0
  0
LINE
  5
64
330
18
100
AcDbEntity
  8
LEVEL001
  6
Continuous
 62
     3
370
    20
100
AcDbLine
 10
278.40236356136
 20
129.03074396064
 30
0.0
 11
278.40236356136
 21
115.46666870658
 31
0.0
  0
LINE
  5
65
330
18
100
AcDbEntity
  8
LEVEL001
  6
Continuous
 62
     3
370
    20
100
AcDbLine
 10
318.40236356136
 20
129.03074396064
 30
0.0
 11
318.40236356136
 21
90.946472689213
 31
0.0
  0
LINE
  5
66
330
18
100
AcDbEntity
  8
LEVEL001
  6
Continuous
 62
     3
370
    20
100
AcDbLine
 10
278.40236356136
 20
105.46666870658
 30
0.0
 11
278.40236356136
 21
90.946472689213
 31
0.0
  0
LINE
  5
67
330
18
100
AcDbEntity
  8
LEVEL001
  6
Continuous
 62
     3
370
    20
100
AcDbLine
 10
318.40236356136
 20
114.66666870658
 30
0.0
 11
327.60236356136
 21
114.66666870658
 31
0.0
  0
LINE
  5
68
330
18
100
AcDbEntity
  8
LEVEL001
  6
Continuous
 62
     3
370
    20
100
AcDbLine
 10
298.40236356136
 20
115.46666870658
 30
0.0
 11
269.20236356136
 21
115.46666870658
 31
0.0
  0
LINE
  5
69
330
18
100
AcDbEntity
  8
LEVEL001
  6
Continuous
 62
     3
370
    20
100
AcDbLine
 10
327.60236356136
 20
115.46666870658
 30
0.0
 11
318.40236356136
 21
115.46666870658
 31
0.0
  0
LINE
  5
6A
330
18
100
AcDbEntity
  8
LEVEL001
  6
Continuous
 62
     3
370
    20
100
AcDbLine
 10
318.70236356136
 20
114.66666870658
 30
0.0
 11
318.70236356136
 21
115.46666870658
 31
0.0
  0
LWPOLYLINE
  5
6B
330
18
100
AcDbEntity
  8
LEVEL001
  6
Continuous
 62
     3
370
    20
100
AcDbPolyline
 90
        3
 70
     0
 43
0.0
 10
263.40236356136
 20
109.66666870658
 10
263.40236356136
 20
105.46666870658
 10
298.40236356136
 20
105.46666870658
  0
LWPOLYLINE
  5
6C
330
18
100
AcDbEntity
  8
LEVEL001
  6
Continuous
 62
     3
370
    20
100
AcDbPolyline
 90
        3
 70
     0
 43
0.0
 10
318.40236356136
 20
105.46666870658
 10
333.40236356136
 20
105.46666870658
 10
333.40236356136
 20
109.66666870658
  0
ARC
  5
6D
330
18
100
AcDbEntity
  8
LEVEL001
  6
Continuous
 62
     3
370
    20
100
AcDbCircle
 10
288.40236356136
 20
108.2669807649
 30
0.0
 40
20.0
100
AcDbArc
 50
240.0
 51
300.0
  0
ARC
  5
6E
330
18
100
AcDbEntity
  8
LEVEL001
  6
Continuous
 62
     3
370
    20
100
AcDbCircle
 10
308.40236356136
 20
73.625964613524
 30
0.0
 40
20.0
100
AcDbArc
 50
60.0
 51
120.0
  0
ARC
  5
6F
330
18
100
AcDbEntity
  8
LEVEL001
  6
Continuous
 62
     3
370
    20
100
AcDbCircle
 10
288.40236356136
 20
146.35125203633
 30
0.0
 40
20.0
100
AcDbArc
 50
240.0
 51
300.0
  0
ARC
  5
70
330
18
100
AcDbEntity
  8
LEVEL001
  6
Continuous
 62
     3
370
    20
100
AcDbCircle
 10
308.40236356136
 20
111.71023588496
 30
0.0
 40
20.0
100
AcDbArc
 50
60.0
 51
120.0
  0
ARC
  5
71
330
18
100
AcDbEntity
  8
LEVEL001
  6
Continuous
 62
     3
370
    20
100
AcDbCircle
 10
288.40236356136
 20
111.71023588496
 30
0.0
 40
20.0
100
AcDbArc
 50
60.0
 51
120.0
  0
LINE
  5
72
330
18
100
AcDbEntity
  8
LEVEL001
  6
DASHDOT
 62
     1
370
    15
100
AcDbLine
 10
298.40236356136
 20
134.31704715809
 30
0.0
 11
298.40236356136
 21
87.696816608506
 31
0.0
  0
ARC
  5
73
330
18
100
AcDbEntity
  8
LEVEL001
  6
Continuous
 62
     3
370
    20
100
AcDbCircle
 10
327.60236356136
 20
109.66666870658
 30
0.0
 40
5.0
100
AcDbArc
 50
0.0000000000010422
 51
90.0
  0
ARC
  5
74
330
18
100
AcDbEntity
  8
LEVEL001
  6
Continuous
 62
     3
370
    20
100
AcDbCircle
 10
327.60236356136
 20
109.66666870658
 30
0.0
 40
5.8
100
AcDbArc
 50
0.0000000000008985
 51
90.0
  0
ARC
  5
75
330
18
100
AcDbEntity
  8
LEVEL001
  6
Continuous
 62
     3
370
    20
100
AcDbCircle
 10
269.20236356136
 20
109.66666870658
 30
0.0
 40
5.8
100
AcDbArc
 50
90.000000000001
 51
180.0
  0
LINE
  5
76
330
18
100
AcDbEntity
  8
LEVEL001
  6
Continuous
 62
     3
370
    20
100
AcDbLine
 10
316.60236356136
 20
129.9066641059
 30
0.0
 11
316.60236356136
 21
91.822392834469
 31
0.0
  0
LINE
  5
77
330
18
100
AcDbEntity
  8
LEVEL001
  6
Continuous
 62
     3
370
    20
100
AcDbLine
 10
317.50236356136
 20
129.45616310965
 30
0.0
 11
317.50236356136
 21
91.371891838218
 31
0.0
  0
ARC
  5
78
330
18
100
AcDbEntity
  8
LEVEL001
  6
Continuous
 62
     3
370
    20
100
AcDbCircle
 10
288.40236356136
 20
111.71023588496
 30
0.0
 40
18.2
100
AcDbArc
 50
63.78531969490201
 51
116.2146803051
  0
ARC
  5
79
330
18
100
AcDbEntity
  8
LEVEL001
  6
Continuous
 62
     3
370
    20
100
AcDbCircle
 10
288.40236356136
 20
111.71023588496
 30
0.0
 40
19.1
100
AcDbArc
 50
61.67132915457
 51
118.32867084543
  0
LINE
  5
7A
330
18
100
AcDbEntity
  8
LEVEL001
  6
Continuous
 62
     3
370
    20
100
AcDbLine
 10
258.40236356136
 20
105.46666870658
 30
0.0
 11
263.40236356136
 21
96.806414668736
 31
0.0
  0
LINE
  5
7B
330
18
100
AcDbEntity
  8
LEVEL001
  6
Continuous
 62
     3
370
    20
100
AcDbLine
 10
259.95885841173
 20
96.806414668736
 30
0.0
 11
261.68061098655
 21
99.788577606385
 31
0.0
  0
LINE
  5
7C
330
18
100
AcDbEntity
  8
LEVEL001
  6
Continuous
 62
     3
370
    20
100
AcDbLine
 10
256.65885841173
 20
96.806414668736
 30
0.0
 11
260.03061098655
 21
102.64646143887
 31
0.0
  0
LINE
  5
7D
330
18
100
AcDbEntity
  8
LEVEL001
  6
Continuous
 62
     3
370
    20
100
AcDbLine
 10
253.40236356136
 20
96.806414668736
 30
0.0
 11
258.40236356136
 21
105.46666870658
 31
0.0
  0
LINE
  5
7E
330
18
100
AcDbEntity
  8
LEVEL001
  6
Continuous
 62
     3
370
    20
100
AcDbLine
 10
251.70236356136
 20
105.46666870658
 30
0.0
 11
255.05236356136
 21
99.664298501225
 31
0.0
  0
LINE
  5
7F
330
18
100
AcDbEntity
  8
LEVEL001
  6
Continuous
 62
     3
370
    20
100
AcDbLine
 10
255.00236356136
 20
105.46666870658
 30
0.0
 11
256.70236356136
 21
102.52218233371
 31
0.0
  0
LINE
  5
80
330
18
100
AcDbEntity
  8
LEVEL001
  6
Continuous
 62
     3
370
    20
100
AcDbLine
 10
261.70236356136
 20
105.46666870658
 30
0.0
 11
263.40236356136
 21
102.52218233371
 31
0.0
  0
LINE
  5
81
330
18
100
AcDbEntity
  8
LEVEL001
  6
Continuous
 62
     3
370
    20
100
AcDbLine
 10
263.40236356136
 20
105.46666870658
 30
0.0
 11
251.70236356136
 21
105.46666870658
 31
0.0
  0
TEXT
  5
82
330
18
100
AcDbEntity
  8
LEVEL001
 62
     3
370
    20
100
AcDbText
 10
259.30763758282
 20
41.959526578461
 30
0.0
 40
4.0
  1
※グランドカバーは、ポール埋込部の
 41
1.1176470588235
 72
     5
 11
335.30763758282
 21
41.959526578461
 31
0.0
100
AcDbText
  0
TEXT
  5
83
330
18
100
AcDbEntity
  8
LEVEL001
 62
     3
370
    20
100
AcDbText
 10
259.30763758282
 20
36.626193245128
 30
0.0
 40
4.0
  1
　化粧用で別梱包部品です。
 41
1.1153846153846
 72
     5
 11
317.30763758282
 21
36.626193245128
 31
0.0
100
AcDbText
  0
POINT
  5
84
330
18
100
AcDbEntity
  8
LEVEL001
 62
     3
100
AcDbPoint
 10
332.60236356136
 20
114.66666870658
 30
0.0
  0
LINE
  5
85
330
18
100
AcDbEntity
  8
LEVEL001
  6
Continuous
 62
     3
370
    20
100
AcDbLine
 10
332.60236356136
 20
109.66666870658
 30
0.0
 11
332.60236356136
 21
105.46666870658
 31
0.0
  0
TEXT
  5
86
330
18
100
AcDbEntity
  8
LEVEL001
 62
     3
370
    20
100
AcDbText
 10
347.75
 20
126.0
 30
0.0
 40
3.0
  1
２
 41
0.5
 72
     5
 11
349.25
 21
126.0
 31
0.0
100
AcDbText
  0
TEXT
  5
87
330
18
100
AcDbEntity
  8
LEVEL001
 62
     3
370
    20
100
AcDbText
 10
352.0
 20
126.0
 30
0.0
 40
3.0
  1
キャップ
 72
     5
 11
364.0
 21
126.0
 31
0.0
100
AcDbText
  0
TEXT
  5
88
330
18
100
AcDbEntity
  8
LEVEL001
 62
     3
370
    20
100
AcDbText
 10
382.75
 20
126.0
 30
0.0
 40
3.0
  1
１
 41
0.5
 72
     5
 11
384.25
 21
126.0
 31
0.0
100
AcDbText
  0
TEXT
  5
89
330
18
100
AcDbEntity
  8
LEVEL001
 62
     3
370
    20
100
AcDbText
 10
387.0
 20
126.0
 30
0.0
 40
3.0
  1
ＡＤＣ５/Ａ１１００－Ｏ
 41
0.63888888888889
 72
     5
 11
410.0
 21
126.0
 31
0.0
100
AcDbText
  0
TEXT
  5
8A
330
18
100
AcDbEntity
  8
LEVEL001
 62
     3
370
    20
100
AcDbText
 10
382.75
 20
116.0
 30
0.0
 40
3.0
  1
１
 41
0.5
 72
     5
 11
384.25
 21
116.0
 31
0.0
100
AcDbText
  0
TEXT
  5
8B
330
18
100
AcDbEntity
  8
LEVEL001
 62
     3
370
    20
100
AcDbText
 10
352.0
 20
121.0
 30
0.0
 40
3.0
  1
先端ポール
 72
     5
 11
367.0
 21
121.0
 31
0.0
100
AcDbText
  0
TEXT
  5
8C
330
18
100
AcDbEntity
  8
LEVEL001
 62
     3
370
    20
100
AcDbText
 10
382.75
 20
121.0
 30
0.0
 40
3.0
  1
１
 41
0.5
 72
     5
 11
384.25
 21
121.0
 31
0.0
100
AcDbText
  0
TEXT
  5
8D
330
18
100
AcDbEntity
  8
LEVEL001
 62
     3
370
    20
100
AcDbText
 10
346.25
 20
116.0
 30
0.0
 40
3.0
  1
１－３
 41
0.5
 72
     5
 11
350.75
 21
116.0
 31
0.0
100
AcDbText
  0
TEXT
  5
8E
330
18
100
AcDbEntity
  8
LEVEL001
 62
     3
370
    20
100
AcDbText
 10
346.25
 20
121.0
 30
0.0
 40
3.0
  1
１－４
 41
0.5
 72
     5
 11
350.75
 21
121.0
 31
0.0
100
AcDbText
  0
TEXT
  5
8F
330
18
100
AcDbEntity
  8
LEVEL001
 62
     3
370
    20
100
AcDbText
 10
356.6
 20
81.0
 30
0.0
 40
3.0
  1
１：５　１：８０
 72
     5
 11
380.6
 21
81.0
 31
0.0
100
AcDbText
  0
TEXT
  5
90
330
18
100
AcDbEntity
  8
LEVEL001
 62
     3
370
    20
100
AcDbText
 10
349.97305288127
 20
225.18691557
 30
0.0
 40
3.0
  1
 制
 41
0.75
 72
     5
 11
354.47305288127
 21
225.18691557
 31
0.0
100
AcDbText
  0
TEXT
  5
91
330
18
100
AcDbEntity
  8
LEVEL001
 62
     3
370
    20
100
AcDbText
 10
349.97305288127
 20
221.18691557
 30
0.0
 40
3.0
  1
 定
 41
0.75
 72
     5
 11
354.47305288127
 21
221.18691557
 31
0.0
100
AcDbText
  0
TEXT
  5
92
330
18
100
AcDbEntity
  8
LEVEL001
 62
     3
370
    20
100
AcDbText
 10
349.97305288127
 20
217.18691557
 30
0.0
 40
3.0
  1
 風
 41
0.75
 72
     5
 11
354.47305288127
 21
217.18691557
 31
0.0
100
AcDbText
  0
TEXT
  5
93
330
18
100
AcDbEntity
  8
LEVEL001
 62
     3
370
    20
100
AcDbText
 10
349.97305288127
 20
213.18691557
 30
0.0
 40
3.0
  1
 速
 41
0.75
 72
     5
 11
354.47305288127
 21
213.18691557
 31
0.0
100
AcDbText
  0
TEXT
  5
94
330
18
100
AcDbEntity
  8
LEVEL001
 62
     3
370
    20
100
AcDbText
 10
349.97305288127
 20
209.18691557
 30
0.0
 40
3.0
  1
(Vo)
 41
0.5
 72
     5
 11
355.97305288127
 21
209.18691557
 31
0.0
100
AcDbText
  0
LINE
  5
95
330
18
100
AcDbEntity
  8
LEVEL001
  6
Continuous
 62
     1
370
    15
100
AcDbLine
 10
263.40236356136
 20
103.46666870658
 30
0.0
 11
263.40236356136
 21
75.299777481101
 31
0.0
  0
LINE
  5
96
330
18
100
AcDbEntity
  8
LEVEL001
  6
Continuous
 62
     1
370
    15
100
AcDbLine
 10
333.40236356136
 20
103.46666870658
 30
0.0
 11
333.40236356136
 21
75.299777481101
 31
0.0
  0
LINE
  5
97
330
18
100
AcDbEntity
  8
LEVEL001
  6
Continuous
 62
     1
370
    15
100
AcDbLine
 10
263.40236356136
 20
77.299777481101
 30
0.0
 11
298.40236356136
 21
77.299777481101
 31
0.0
  0
LINE
  5
98
330
18
100
AcDbEntity
  8
LEVEL001
  6
Continuous
 62
     1
370
    15
100
AcDbLine
 10
333.40236356136
 20
77.299777481101
 30
0.0
 11
298.40236356136
 21
77.299777481101
 31
0.0
  0
LINE
  5
99
330
18
100
AcDbEntity
  8
LEVEL001
  6
Continuous
 62
     1
370
    15
100
AcDbLine
 10
263.40236356136
 20
77.299777481101
 30
0.0
 11
266.40236356136
 21
76.495929903808
 31
0.0
  0
LINE
  5
9A
330
18
100
AcDbEntity
  8
LEVEL001
  6
Continuous
 62
     1
370
    15
100
AcDbLine
 10
263.40236356136
 20
77.299777481101
 30
0.0
 11
266.40236356136
 21
78.103625058394
 31
0.0
  0
LINE
  5
9B
330
18
100
AcDbEntity
  8
LEVEL001
  6
Continuous
 62
     1
370
    15
100
AcDbLine
 10
333.40236356136
 20
77.299777481101
 30
0.0
 11
330.40236356136
 21
78.103625058394
 31
0.0
  0
LINE
  5
9C
330
18
100
AcDbEntity
  8
LEVEL001
  6
Continuous
 62
     1
370
    15
100
AcDbLine
 10
333.40236356136
 20
77.299777481101
 30
0.0
 11
330.40236356136
 21
76.495929903808
 31
0.0
  0
MTEXT
  5
9D
330
18
100
AcDbEntity
  8
LEVEL001
 62
     3
370
    20
100
AcDbMText
 10
298.40236356136
 20
79.014063195387
 30
0.0
 40
4.0
 41
0.0
 71
     8
 72
     1
  1
\A1;(%%c350)
 73
     1
 44
1.0
  0
LINE
  5
9E
330
18
100
AcDbEntity
  8
LEVEL001
  6
Continuous
 62
     1
370
    15
100
AcDbLine
 10
260.40236356136
 20
105.46666870658
 30
0.0
 11
247.93862137743
 21
105.46666870658
 31
0.0
  0
LINE
  5
9F
330
18
100
AcDbEntity
  8
LEVEL001
  6
Continuous
 62
     1
370
    15
100
AcDbLine
 10
266.20236356136
 20
115.46666870658
 30
0.0
 11
247.93862137743
 21
115.46666870658
 31
0.0
  0
LINE
  5
A0
330
18
100
AcDbEntity
  8
LEVEL001
  6
Continuous
 62
     1
370
    15
100
AcDbLine
 10
249.93862137743
 20
105.46666870658
 30
0.0
 11
249.93862137743
 21
110.46666870658
 31
0.0
  0
LINE
  5
A1
330
18
100
AcDbEntity
  8
LEVEL001
  6
Continuous
 62
     1
370
    15
100
AcDbLine
 10
249.93862137743
 20
115.46666870658
 30
0.0
 11
249.93862137743
 21
110.46666870658
 31
0.0
  0
LINE
  5
A2
330
18
100
AcDbEntity
  8
LEVEL001
  6
Continuous
 62
     1
370
    15
100
AcDbLine
 10
249.93862137743
 20
105.46666870658
 30
0.0
 11
250.74246895473
 21
108.46666870658
 31
0.0
  0
LINE
  5
A3
330
18
100
AcDbEntity
  8
LEVEL001
  6
Continuous
 62
     1
370
    15
100
AcDbLine
 10
249.93862137743
 20
105.46666870658
 30
0.0
 11
249.13477380014
 21
108.46666870658
 31
0.0
  0
LINE
  5
A4
330
18
100
AcDbEntity
  8
LEVEL001
  6
Continuous
 62
     1
370
    15
100
AcDbLine
 10
249.93862137743
 20
115.46666870658
 30
0.0
 11
249.13477380014
 21
112.46666870658
 31
0.0
  0
LINE
  5
A5
330
18
100
AcDbEntity
  8
LEVEL001
  6
Continuous
 62
     1
370
    15
100
AcDbLine
 10
249.93862137743
 20
115.46666870658
 30
0.0
 11
250.74246895473
 21
112.46666870658
 31
0.0
  0
MTEXT
  5
A6
330
18
100
AcDbEntity
  8
LEVEL001
 62
     3
370
    20
100
AcDbMText
 10
248.22433566315
 20
110.46666870658
 30
0.0
 40
4.0
 41
0.0
 71
     8
 72
     1
  1
\A1;(50)
 11
0.0
 21
1.0
 31
0.0
 73
     1
 44
1.0
  0
TEXT
  5
A7
330
18
100
AcDbEntity
  8
LEVEL001
 62
     3
370
    20
100
AcDbText
 10
352.0
 20
111.0
 30
0.0
 40
3.0
  1
中間ポール
 72
     5
 11
367.0
 21
111.0
 31
0.0
100
AcDbText
  0
TEXT
  5
A8
330
18
100
AcDbEntity
  8
LEVEL001
 62
     3
370
    20
100
AcDbText
 10
352.0
 20
116.0
 30
0.0
 40
3.0
  1
中間ポール
 72
     5
 11
367.0
 21
116.0
 31
0.0
100
AcDbText
  0
LINE
  5
A9
330
18
100
AcDbEntity
  8
LEVEL001
  6
Continuous
 62
     3
370
    20
100
AcDbLine
 10
346.0
 20
145.0
 30
0.0
 11
410.0
 21
145.0
 31
0.0
  0
LINE
  5
AA
330
18
100
AcDbEntity
  8
LEVEL001
  6
Continuous
 62
     3
370
    20
100
AcDbLine
 10
346.0
 20
140.0
 30
0.0
 11
410.0
 21
140.0
 31
0.0
  0
TEXT
  5
AB
330
18
100
AcDbEntity
  8
LEVEL001
 62
     3
370
    20
100
AcDbText
 10
352.0
 20
136.0
 30
0.0
 40
3.0
  1
クリート
 72
     5
 11
364.0
 21
136.0
 31
0.0
100
AcDbText
  0
TEXT
  5
AC
330
18
100
AcDbEntity
  8
LEVEL001
 62
     3
370
    20
100
AcDbText
 10
352.0
 20
141.0
 30
0.0
 40
3.0
  1
グランドカバー
 72
     5
 11
373.0
 21
141.0
 31
0.0
100
AcDbText
  0
TEXT
  5
AD
330
18
100
AcDbEntity
  8
LEVEL001
 62
     3
370
    20
100
AcDbText
 10
382.75
 20
141.0
 30
0.0
 40
3.0
  1
１
 41
0.5
 72
     5
 11
384.25
 21
141.0
 31
0.0
100
AcDbText
  0
TEXT
  5
AE
330
18
100
AcDbEntity
  8
LEVEL001
 62
     3
370
    20
100
AcDbText
 10
382.75
 20
136.0
 30
0.0
 40
3.0
  1
１
 41
0.5
 72
     5
 11
384.25
 21
136.0
 31
0.0
100
AcDbText
  0
TEXT
  5
AF
330
18
100
AcDbEntity
  8
LEVEL001
 62
     3
370
    20
100
AcDbText
 10
387.0
 20
136.0
 30
0.0
 40
3.0
  1
ＡＤＣ５
 41
0.66666666666667
 72
     5
 11
395.0
 21
136.0
 31
0.0
100
AcDbText
  0
TEXT
  5
B0
330
18
100
AcDbEntity
  8
LEVEL001
 62
     3
370
    20
100
AcDbText
 10
347.75
 20
141.0
 30
0.0
 40
3.0
  1
５
 41
0.5
 72
     5
 11
349.25
 21
141.0
 31
0.0
100
AcDbText
  0
TEXT
  5
B1
330
18
100
AcDbEntity
  8
LEVEL001
 62
     3
370
    20
100
AcDbText
 10
347.75
 20
136.0
 30
0.0
 40
3.0
  1
４
 41
0.5
 72
     5
 11
349.25
 21
136.0
 31
0.0
100
AcDbText
  0
TEXT
  5
B2
330
18
100
AcDbEntity
  8
LEVEL001
 62
     3
370
    20
100
AcDbText
 10
382.75
 20
131.0
 30
0.0
 40
3.0
  1
１
 41
0.5
 72
     5
 11
384.25
 21
131.0
 31
0.0
100
AcDbText
  0
LINE
  5
B3
330
18
100
AcDbEntity
  8
LEVEL001
  6
Continuous
 62
     3
370
    20
100
AcDbLine
 10
346.0
 20
135.0
 30
0.0
 11
410.0
 21
135.0
 31
0.0
  0
TEXT
  5
B4
330
18
100
AcDbEntity
  8
LEVEL001
 62
     3
370
    20
100
AcDbText
 10
347.75
 20
131.0
 30
0.0
 40
3.0
  1
３
 41
0.5
 72
     5
 11
349.25
 21
131.0
 31
0.0
100
AcDbText
  0
TEXT
  5
B5
330
18
100
AcDbEntity
  8
LEVEL001
 62
     3
370
    20
100
AcDbText
 10
352.0
 20
131.0
 30
0.0
 40
3.0
  1
滑車
 72
     5
 11
358.0
 21
131.0
 31
0.0
100
AcDbText
  0
TEXT
  5
B6
330
18
100
AcDbEntity
  8
LEVEL001
 62
     3
370
    20
100
AcDbText
 10
387.0
 20
131.0
 30
0.0
 40
3.0
  1
ジュラコン
 41
0.66666666666667
 72
     5
 11
397.0
 21
131.0
 31
0.0
100
AcDbText
  0
LINE
  5
B7
330
18
100
AcDbEntity
  8
LEVEL001
  6
Continuous
 62
     1
370
    15
100
AcDbLine
 10
318.40236356136
 20
131.03074396064
 30
0.0
 11
318.40236356136
 21
141.31022180282
 31
0.0
  0
LINE
  5
B8
330
18
100
AcDbEntity
  8
LEVEL001
  6
Continuous
 62
     1
370
    15
100
AcDbLine
 10
278.40236356136
 20
131.03074396064
 30
0.0
 11
278.40236356136
 21
141.31022180282
 31
0.0
  0
LINE
  5
B9
330
18
100
AcDbEntity
  8
LEVEL001
  6
Continuous
 62
     1
370
    15
100
AcDbLine
 10
318.40236356136
 20
139.31022180282
 30
0.0
 11
298.40236356136
 21
139.31022180282
 31
0.0
  0
LINE
  5
BA
330
18
100
AcDbEntity
  8
LEVEL001
  6
Continuous
 62
     1
370
    15
100
AcDbLine
 10
278.40236356136
 20
139.31022180282
 30
0.0
 11
298.40236356136
 21
139.31022180282
 31
0.0
  0
LINE
  5
BB
330
18
100
AcDbEntity
  8
LEVEL001
  6
Continuous
 62
     1
370
    15
100
AcDbLine
 10
318.40236356136
 20
139.31022180282
 30
0.0
 11
315.40236356136
 21
140.11406938011
 31
0.0
  0
LINE
  5
BC
330
18
100
AcDbEntity
  8
LEVEL001
  6
Continuous
 62
     1
370
    15
100
AcDbLine
 10
318.40236356136
 20
139.31022180282
 30
0.0
 11
315.40236356136
 21
138.50637422552
 31
0.0
  0
LINE
  5
BD
330
18
100
AcDbEntity
  8
LEVEL001
  6
Continuous
 62
     1
370
    15
100
AcDbLine
 10
278.40236356136
 20
139.31022180282
 30
0.0
 11
281.40236356136
 21
138.50637422552
 31
0.0
  0
LINE
  5
BE
330
18
100
AcDbEntity
  8
LEVEL001
  6
Continuous
 62
     1
370
    15
100
AcDbLine
 10
278.40236356136
 20
139.31022180282
 30
0.0
 11
281.40236356136
 21
140.11406938011
 31
0.0
  0
MTEXT
  5
BF
330
18
100
AcDbEntity
  8
LEVEL001
 62
     3
370
    20
100
AcDbMText
 10
298.40236356136
 20
141.0245075171
 30
0.0
 40
4.0
 41
0.0
 71
     8
 72
     1
  1
\A1;(%%c200)
 73
     1
 44
1.0
  0
LWPOLYLINE
  5
C0
330
18
100
AcDbEntity
  8
LEVEL001
  6
Continuous
 62
     3
370
    20
100
AcDbPolyline
 90
        5
 70
     0
 43
0.0
 10
79.978831405393
 20
229.12260788757
 10
79.978831405393
 20
251.31010788757
 10
80.072581405393
 20
263.49760788757
 10
80.072581405393
 20
266.62260788758
 10
80.541331405394
 20
266.62260788757
  0
LWPOLYLINE
  5
C1
330
18
100
AcDbEntity
  8
LEVEL001
  6
Continuous
 62
     3
370
    20
100
AcDbPolyline
 90
        5
 70
     0
 43
0.0
 10
81.103831405394
 20
229.12260788757
 10
81.103831405394
 20
251.31010788757
 10
81.010081405394
 20
263.49760788757
 10
81.010081405394
 20
266.62260788758
 10
80.541331405394
 20
266.62260788757
  0
LINE
  5
C2
330
18
100
AcDbEntity
  8
LEVEL001
  6
Continuous
 62
     3
370
    20
100
AcDbLine
 10
79.978831405393
 20
229.12260788757
 30
0.0
 11
81.103831405394
 21
229.12260788757
 31
0.0
  0
LWPOLYLINE
  5
C3
330
18
100
AcDbEntity
  8
LEVEL001
  6
Continuous
 62
     3
370
    20
100
AcDbPolyline
 90
        5
 70
     0
 43
0.0
 10
79.978831405393
 20
229.12260788757
 10
79.978831405393
 20
225.99760788757
 10
79.791331405394
 20
201.62260788757
 10
79.791331405394
 20
191.62260788757
 10
80.541331405394
 20
191.62260788757
  0
LWPOLYLINE
  5
C4
330
18
100
AcDbEntity
  8
LEVEL001
  6
Continuous
 62
     3
370
    20
100
AcDbPolyline
 90
        5
 70
     0
 43
0.0
 10
81.103831405394
 20
229.12260788757
 10
81.103831405394
 20
225.99760788757
 10
81.291331405393
 20
201.62260788757
 10
81.291331405393
 20
191.62260788757
 10
80.541331405394
 20
191.62260788757
  0
LINE
  5
C5
330
18
100
AcDbEntity
  8
LEVEL001
  6
Continuous
 62
     3
370
    20
100
AcDbLine
 10
79.510081405394
 20
129.12260788757
 30
0.0
 11
81.572581405394
 21
129.12260788757
 31
0.0
  0
LWPOLYLINE
  5
C6
330
18
100
AcDbEntity
  8
LEVEL001
  6
Continuous
 62
     3
370
    20
100
AcDbPolyline
 90
        4
 70
     0
 43
0.0
 10
79.510081405394
 20
129.12260788757
 10
79.510081405394
 20
151.93510788757
 10
79.791331405394
 20
188.49760788757
 10
79.791331405394
 20
191.62260788757
  0
LWPOLYLINE
  5
C7
330
18
100
AcDbEntity
  8
LEVEL001
  6
Continuous
 62
     3
370
    20
100
AcDbPolyline
 90
        4
 70
     0
 43
0.0
 10
81.572581405394
 20
129.12260788757
 10
81.572581405394
 20
151.93510788757
 10
81.291331405393
 20
188.49760788757
 10
81.291331405393
 20
191.62260788757
  0
LINE
  5
C8
330
18
100
AcDbEntity
  8
LEVEL001
  6
DASHDOT
 62
     1
370
    15
100
AcDbLine
 10
80.541331405394
 20
269.8269329522
 30
0.0
 11
80.541331405394
 21
45.244466856509
 31
0.0
  0
LINE
  5
C9
330
18
100
AcDbEntity
  8
LEVEL001
  6
DOT
 62
     1
370
    15
100
AcDbLine
 10
79.416331405394
 20
61.622607887572
 30
0.0
 11
81.666331405394
 21
61.622607887572
 31
0.0
  0
LINE
  5
CA
330
18
100
AcDbEntity
  8
LEVEL001
  6
DOT
 62
     1
370
    15
100
AcDbLine
 10
81.666331405394
 20
91.622607887572
 30
0.0
 11
79.416331405394
 21
91.622607887572
 31
0.0
  0
TEXT
  5
CB
330
18
100
AcDbEntity
  8
LEVEL001
 62
     3
370
    20
100
AcDbText
 10
116.44376390664
 20
66.857995306139
 30
0.0
 40
4.0
  1
ＧＬ
 72
     5
 11
124.44376390664
 21
66.857995306139
 31
0.0
100
AcDbText
  0
ARC
  5
CC
330
18
100
AcDbEntity
  8
LEVEL001
  6
Continuous
 62
     3
370
    20
100
AcDbCircle
 10
78.716331405394
 20
66.885107887571
 30
0.0
 40
0.3625
100
AcDbArc
 50
90.00000000000702
 51
180.0
  0
LINE
  5
CD
330
18
100
AcDbEntity
  8
LEVEL001
  6
Continuous
 62
     3
370
    20
100
AcDbLine
 10
80.541331405394
 20
67.247607887571
 30
0.0
 11
78.716331405394
 21
67.247607887571
 31
0.0
  0
ARC
  5
CE
330
18
100
AcDbEntity
  8
LEVEL001
  6
Continuous
 62
     3
370
    20
100
AcDbCircle
 10
82.366331405394
 20
66.885107887571
 30
0.0
 40
0.3625
100
AcDbArc
 50
0.0
 51
90.0
  0
LINE
  5
CF
330
18
100
AcDbEntity
  8
LEVEL001
  6
Continuous
 62
     3
370
    20
100
AcDbLine
 10
80.541331405394
 20
67.247607887571
 30
0.0
 11
82.366331405394
 21
67.247607887571
 31
0.0
  0
LINE
  5
D0
330
18
100
AcDbEntity
  8
LEVEL001
  6
Continuous
 62
     3
370
    20
100
AcDbLine
 10
82.728831405394
 20
66.885107887571
 30
0.0
 11
82.728831405394
 21
66.622607887572
 31
0.0
  0
LINE
  5
D1
330
18
100
AcDbEntity
  8
LEVEL001
  6
Continuous
 62
     3
370
    20
100
AcDbLine
 10
78.353831405394
 20
66.885107887571
 30
0.0
 11
78.353831405394
 21
66.622607887572
 31
0.0
  0
TEXT
  5
D2
330
18
100
AcDbEntity
  8
LEVEL001
 62
     3
370
    20
100
AcDbText
 10
113.42638057007
 20
68.105861417739
 30
0.0
 40
4.0
  1
２重管部
 50
90.0
 72
     5
 11
113.42638057007
 21
84.105861417739
 31
0.0
100
AcDbText
  0
LWPOLYLINE
  5
D3
330
18
100
AcDbEntity
  8
LEVEL001
  6
Continuous
 62
     3
370
    20
100
AcDbPolyline
 90
        3
 70
     0
 43
0.0
 10
80.541331405394
 20
47.872607887572
 10
79.291331405394
 20
47.872607887572
 10
79.291331405394
 20
66.622607887572
  0
LWPOLYLINE
  5
D4
330
18
100
AcDbEntity
  8
LEVEL001
  6
Continuous
 62
     3
370
    20
100
AcDbPolyline
 90
        4
 70
     0
 43
0.0
 10
79.291331405394
 20
67.247607887571
 10
79.291331405394
 20
97.560107887572
 10
79.510081405394
 20
125.99760788757
 10
79.510081405394
 20
129.12260788757
  0
LINE
  5
D5
330
18
100
AcDbEntity
  8
LEVEL001
  6
DOT
 62
     1
370
    15
100
AcDbLine
 10
79.416331405394
 20
91.622607887572
 30
0.0
 11
79.416331405394
 21
67.247607887571
 31
0.0
  0
LINE
  5
D6
330
18
100
AcDbEntity
  8
LEVEL001
  6
DOT
 62
     1
370
    15
100
AcDbLine
 10
79.416331405394
 20
66.622607887572
 30
0.0
 11
79.416331405394
 21
61.622607887572
 31
0.0
  0
LINE
  5
D7
330
18
100
AcDbEntity
  8
LEVEL001
  6
DOT
 62
     1
370
    15
100
AcDbLine
 10
81.666331405394
 20
61.622607887572
 30
0.0
 11
81.666331405394
 21
66.622607887572
 31
0.0
  0
LINE
  5
D8
330
18
100
AcDbEntity
  8
LEVEL001
  6
DOT
 62
     1
370
    15
100
AcDbLine
 10
81.666331405394
 20
67.247607887571
 30
0.0
 11
81.666331405394
 21
91.622607887572
 31
0.0
  0
LWPOLYLINE
  5
D9
330
18
100
AcDbEntity
  8
LEVEL001
  6
Continuous
 62
     3
370
    20
100
AcDbPolyline
 90
        3
 70
     0
 43
0.0
 10
80.541331405394
 20
47.872607887572
 10
81.791331405394
 20
47.872607887572
 10
81.791331405394
 20
66.622607887572
  0
LWPOLYLINE
  5
DA
330
18
100
AcDbEntity
  8
LEVEL001
  6
Continuous
 62
     3
370
    20
100
AcDbPolyline
 90
        4
 70
     0
 43
0.0
 10
81.791331405394
 20
67.247607887571
 10
81.791331405394
 20
97.560107887572
 10
81.572581405394
 20
125.99760788757
 10
81.572581405394
 20
129.12260788757
  0
TEXT
  5
DB
330
18
100
AcDbEntity
  8
LEVEL001
 62
     3
370
    20
100
AcDbText
 10
92.199456953113
 20
231.58374693333
 30
0.0
 40
4.0
  1
ｔ３．０
 41
0.875
 72
     5
 11
106.19945695311
 21
231.58374693333
 31
0.0
100
AcDbText
  0
TEXT
  5
DC
330
18
100
AcDbEntity
  8
LEVEL001
 62
     3
370
    20
100
AcDbText
 10
91.859023291827
 20
193.79561053062
 30
0.0
 40
4.0
  1
ｔ３．０
 41
0.875
 72
     5
 11
105.85902329183
 21
193.79561053062
 31
0.0
100
AcDbText
  0
TEXT
  5
DD
330
18
100
AcDbEntity
  8
LEVEL001
 62
     3
370
    20
100
AcDbText
 10
93.22075793697
 20
132.85798516048
 30
0.0
 40
4.0
  1
ｔ４．０
 41
0.875
 72
     5
 11
107.22075793697
 21
132.85798516048
 31
0.0
100
AcDbText
  0
LINE
  5
DE
330
18
100
AcDbEntity
  8
LEVEL001
  6
Continuous
 62
     3
370
    20
100
AcDbLine
 10
78.978831405394
 20
66.622607887572
 30
0.0
 11
78.978831405394
 21
47.872607887572
 31
0.0
  0
LINE
  5
DF
330
18
100
AcDbEntity
  8
LEVEL001
  6
Continuous
 62
     3
370
    20
100
AcDbLine
 10
79.291331405394
 20
66.622607887572
 30
0.0
 11
79.291331405394
 21
47.872607887572
 31
0.0
  0
LINE
  5
E0
330
18
100
AcDbEntity
  8
LEVEL001
  6
Continuous
 62
     3
370
    20
100
AcDbLine
 10
82.103831405394
 20
47.872607887572
 30
0.0
 11
82.103831405394
 21
66.622607887572
 31
0.0
  0
LINE
  5
E1
330
18
100
AcDbEntity
  8
LEVEL001
  6
Continuous
 62
     3
370
    20
100
AcDbLine
 10
81.791331405394
 20
66.622607887572
 30
0.0
 11
81.791331405394
 21
47.872607887572
 31
0.0
  0
LWPOLYLINE
  5
E2
330
18
100
AcDbEntity
  8
LEVEL001
  6
Continuous
 62
     3
370
    20
100
AcDbPolyline
 90
        4
 70
     0
 43
0.0
 10
80.728831405394
 20
47.872607887572
 10
80.728831405394
 20
45.997607887572
 10
80.353831405394
 20
45.997607887572
 10
80.353831405394
 20
47.872607887572
  0
LINE
  5
E3
330
18
100
AcDbEntity
  8
LEVEL001
  6
Continuous
 62
     3
370
    20
100
AcDbLine
 10
74.291331405394
 20
46.622607887572
 30
0.0
 11
75.041331405393
 21
47.622607887572
 31
0.0
  0
LINE
  5
E4
330
18
100
AcDbEntity
  8
LEVEL001
  6
Continuous
 62
     3
370
    20
100
AcDbLine
 10
75.541331405394
 20
46.622607887572
 30
0.0
 11
76.291331405393
 21
47.622607887572
 31
0.0
  0
LINE
  5
E5
330
18
100
AcDbEntity
  8
LEVEL001
  6
Continuous
 62
     3
370
    20
100
AcDbLine
 10
74.516331405394
 20
46.922607887572
 30
0.0
 11
74.666331405394
 21
46.622607887572
 31
0.0
  0
LINE
  5
E6
330
18
100
AcDbEntity
  8
LEVEL001
  6
Continuous
 62
     3
370
    20
100
AcDbLine
 10
75.916331405393
 20
47.622607887572
 30
0.0
 11
76.066331405393
 21
47.322607887572
 31
0.0
  0
LINE
  5
E7
330
18
100
AcDbEntity
  8
LEVEL001
  6
Continuous
 62
     3
370
    20
100
AcDbLine
 10
74.666331405393
 20
47.622607887572
 30
0.0
 11
74.816331405393
 21
47.322607887572
 31
0.0
  0
LINE
  5
E8
330
18
100
AcDbEntity
  8
LEVEL001
  6
Continuous
 62
     3
370
    20
100
AcDbLine
 10
76.791331405394
 20
46.622607887572
 30
0.0
 11
77.541331405393
 21
47.622607887572
 31
0.0
  0
LINE
  5
E9
330
18
100
AcDbEntity
  8
LEVEL001
  6
Continuous
 62
     3
370
    20
100
AcDbLine
 10
77.166331405393
 20
47.622607887572
 30
0.0
 11
77.316331405393
 21
47.322607887572
 31
0.0
  0
LINE
  5
EA
330
18
100
AcDbEntity
  8
LEVEL001
  6
Continuous
 62
     3
370
    20
100
AcDbLine
 10
75.766331405394
 20
46.922607887572
 30
0.0
 11
75.916331405394
 21
46.622607887572
 31
0.0
  0
LINE
  5
EB
330
18
100
AcDbEntity
  8
LEVEL001
  6
Continuous
 62
     3
370
    20
100
AcDbLine
 10
78.055937170614
 20
46.622607887572
 30
0.0
 11
78.805937170613
 21
47.622607887572
 31
0.0
  0
LINE
  5
EC
330
18
100
AcDbEntity
  8
LEVEL001
  6
Continuous
 62
     3
370
    20
100
AcDbLine
 10
78.430937170613
 20
47.622607887572
 30
0.0
 11
78.580937170614
 21
47.322607887572
 31
0.0
  0
LINE
  5
ED
330
18
100
AcDbEntity
  8
LEVEL001
  6
Continuous
 62
     3
370
    20
100
AcDbLine
 10
77.030937170614
 20
46.922607887572
 30
0.0
 11
77.180937170614
 21
46.622607887572
 31
0.0
  0
LINE
  5
EE
330
18
100
AcDbEntity
  8
LEVEL001
  6
Continuous
 62
     3
370
    20
100
AcDbLine
 10
79.324613601879
 20
46.622607887572
 30
0.0
 11
80.074613601878
 21
47.622607887572
 31
0.0
  0
LINE
  5
EF
330
18
100
AcDbEntity
  8
LEVEL001
  6
Continuous
 62
     3
370
    20
100
AcDbLine
 10
79.699613601878
 20
47.622607887572
 30
0.0
 11
79.849613601878
 21
47.322607887572
 31
0.0
  0
LINE
  5
F0
330
18
100
AcDbEntity
  8
LEVEL001
  6
Continuous
 62
     3
370
    20
100
AcDbLine
 10
78.299613601879
 20
46.922607887572
 30
0.0
 11
78.449613601879
 21
46.622607887572
 31
0.0
  0
LINE
  5
F1
330
18
100
AcDbEntity
  8
LEVEL001
  6
Continuous
 62
     3
370
    20
100
AcDbLine
 10
79.572088083053
 20
46.922607887572
 30
0.0
 11
79.722088083053
 21
46.622607887572
 31
0.0
  0
LINE
  5
F2
330
18
100
AcDbEntity
  8
LEVEL001
  6
Continuous
 62
     3
370
    20
100
AcDbLine
 10
80.972088083053
 20
47.622607887572
 30
0.0
 11
81.122088083053
 21
47.322607887572
 31
0.0
  0
LINE
  5
F3
330
18
100
AcDbEntity
  8
LEVEL001
  6
Continuous
 62
     3
370
    20
100
AcDbLine
 10
81.84479465595
 20
46.622607887572
 30
0.0
 11
82.59479465595
 21
47.622607887572
 31
0.0
  0
LINE
  5
F4
330
18
100
AcDbEntity
  8
LEVEL001
  6
Continuous
 62
     3
370
    20
100
AcDbLine
 10
82.21979465595
 20
47.622607887572
 30
0.0
 11
82.36979465595
 21
47.322607887572
 31
0.0
  0
LINE
  5
F5
330
18
100
AcDbEntity
  8
LEVEL001
  6
Continuous
 62
     3
370
    20
100
AcDbLine
 10
80.81979465595
 20
46.922607887572
 30
0.0
 11
80.96979465595
 21
46.622607887572
 31
0.0
  0
LINE
  5
F6
330
18
100
AcDbEntity
  8
LEVEL001
  6
Continuous
 62
     3
370
    20
100
AcDbLine
 10
83.092501228847
 20
46.622607887572
 30
0.0
 11
83.842501228847
 21
47.622607887572
 31
0.0
  0
LINE
  5
F7
330
18
100
AcDbEntity
  8
LEVEL001
  6
Continuous
 62
     3
370
    20
100
AcDbLine
 10
83.467501228847
 20
47.622607887572
 30
0.0
 11
83.617501228847
 21
47.322607887572
 31
0.0
  0
LINE
  5
F8
330
18
100
AcDbEntity
  8
LEVEL001
  6
Continuous
 62
     3
370
    20
100
AcDbLine
 10
82.067501228847
 20
46.922607887572
 30
0.0
 11
82.217501228847
 21
46.622607887572
 31
0.0
  0
LINE
  5
F9
330
18
100
AcDbEntity
  8
LEVEL001
  6
Continuous
 62
     3
370
    20
100
AcDbLine
 10
84.350692730928
 20
46.622607887572
 30
0.0
 11
85.100692730928
 21
47.622607887572
 31
0.0
  0
LINE
  5
FA
330
18
100
AcDbEntity
  8
LEVEL001
  6
Continuous
 62
     3
370
    20
100
AcDbLine
 10
84.725692730928
 20
47.622607887572
 30
0.0
 11
84.875692730928
 21
47.322607887572
 31
0.0
  0
LINE
  5
FB
330
18
100
AcDbEntity
  8
LEVEL001
  6
Continuous
 62
     3
370
    20
100
AcDbLine
 10
83.325692730928
 20
46.922607887572
 30
0.0
 11
83.475692730928
 21
46.622607887572
 31
0.0
  0
LINE
  5
FC
330
18
100
AcDbEntity
  8
LEVEL001
  6
Continuous
 62
     3
370
    20
100
AcDbLine
 10
85.598399303825
 20
46.622607887572
 30
0.0
 11
86.348399303825
 21
47.622607887572
 31
0.0
  0
LINE
  5
FD
330
18
100
AcDbEntity
  8
LEVEL001
  6
Continuous
 62
     3
370
    20
100
AcDbLine
 10
85.973399303824
 20
47.622607887572
 30
0.0
 11
86.123399303825
 21
47.322607887572
 31
0.0
  0
LINE
  5
FE
330
18
100
AcDbEntity
  8
LEVEL001
  6
Continuous
 62
     3
370
    20
100
AcDbLine
 10
84.573399303825
 20
46.922607887572
 30
0.0
 11
84.723399303825
 21
46.622607887572
 31
0.0
  0
LINE
  5
FF
330
18
100
AcDbEntity
  8
LEVEL001
  6
Continuous
 62
     3
370
    20
100
AcDbLine
 10
85.824600853116
 20
46.922607887572
 30
0.0
 11
85.974600853116
 21
46.622607887572
 31
0.0
  0
LINE
  5
100
330
18
100
AcDbEntity
  8
LEVEL001
  6
Continuous
 62
     3
370
    20
100
AcDbLine
 10
80.728831405394
 20
46.798265650692
 30
0.0
 11
81.347088083053
 21
47.622607887572
 31
0.0
  0
LWPOLYLINE
  5
101
330
18
100
AcDbEntity
  8
LEVEL001
  6
Continuous
 62
     3
370
    20
100
AcDbPolyline
 90
        4
 70
     0
 43
0.0
 10
74.916331405394
 20
47.872607887572
 10
74.916331405394
 20
66.622607887572
 10
86.166331405394
 20
66.622607887572
 10
86.166331405394
 20
47.872607887572
  0
LINE
  5
102
330
18
100
AcDbEntity
  8
LEVEL001
  6
Continuous
 62
     3
370
    20
100
AcDbLine
 10
73.666331405394
 20
47.622607887572
 30
0.0
 11
80.353831405394
 21
47.622607887572
 31
0.0
  0
LINE
  5
103
330
18
100
AcDbEntity
  8
LEVEL001
  6
Continuous
 62
     3
370
    20
100
AcDbLine
 10
80.728831405394
 20
47.622607887572
 30
0.0
 11
87.416331405394
 21
47.622607887572
 31
0.0
  0
LWPOLYLINE
  5
104
330
18
100
AcDbEntity
  8
LEVEL001
  6
Continuous
 62
     3
370
    20
100
AcDbPolyline
 90
        6
 70
     0
 43
0.0
 10
80.728831405394
 20
46.622607887572
 10
87.416331405394
 20
46.622607887572
 10
87.416331405394
 20
47.872607887572
 10
73.666331405394
 20
47.872607887572
 10
73.666331405394
 20
46.622607887572
 10
80.353831405394
 20
46.622607887572
  0
LINE
  5
105
330
18
100
AcDbEntity
  8
LEVEL001
  6
Continuous
 62
     3
370
    20
100
AcDbLine
 10
86.166331405394
 20
64.301664511491
 30
0.0
 11
82.103831405393
 21
61.956179042908
 31
0.0
  0
LINE
  5
106
330
18
100
AcDbEntity
  8
LEVEL001
  6
Continuous
 62
     3
370
    20
100
AcDbLine
 10
86.166331405394
 20
64.085158160558
 30
0.0
 11
82.103831405393
 21
61.739672691975
 31
0.0
  0
LINE
  5
107
330
18
100
AcDbEntity
  8
LEVEL001
  6
Continuous
 62
     3
370
    20
100
AcDbLine
 10
86.166331405394
 20
63.868651809612
 30
0.0
 11
82.103831405393
 21
61.523166341029
 31
0.0
  0
LINE
  5
108
330
18
100
AcDbEntity
  8
LEVEL001
  6
Continuous
 62
     3
370
    20
100
AcDbLine
 10
86.166331405394
 20
55.989995313801
 30
0.0
 11
82.103831405393
 21
53.644509845218
 31
0.0
  0
LINE
  5
109
330
18
100
AcDbEntity
  8
LEVEL001
  6
Continuous
 62
     3
370
    20
100
AcDbLine
 10
86.166331405394
 20
55.773488962869
 30
0.0
 11
82.103831405393
 21
53.428003494286
 31
0.0
  0
LINE
  5
10A
330
18
100
AcDbEntity
  8
LEVEL001
  6
Continuous
 62
     3
370
    20
100
AcDbLine
 10
86.166331405394
 20
55.556982611922
 30
0.0
 11
82.103831405393
 21
53.211497143339
 31
0.0
  0
LINE
  5
10B
330
18
100
AcDbEntity
  8
LEVEL001
  6
Continuous
 62
     3
370
    20
100
AcDbLine
 10
78.978831405393
 20
60.15195945169
 30
0.0
 11
74.916331405394
 21
57.806473983107
 31
0.0
  0
LINE
  5
10C
330
18
100
AcDbEntity
  8
LEVEL001
  6
Continuous
 62
     3
370
    20
100
AcDbLine
 10
78.978831405393
 20
59.935453100758
 30
0.0
 11
74.916331405394
 21
57.589967632175
 31
0.0
  0
LINE
  5
10D
330
18
100
AcDbEntity
  8
LEVEL001
  6
Continuous
 62
     3
370
    20
100
AcDbLine
 10
78.978831405393
 20
59.718946749811
 30
0.0
 11
74.916331405394
 21
57.373461281229
 31
0.0
  0
LINE
  5
10E
330
18
100
AcDbEntity
  8
LEVEL001
  6
Continuous
 62
     3
370
    20
100
AcDbLine
 10
78.978831405393
 20
51.840290254001
 30
0.0
 11
74.916331405394
 21
49.494804785418
 31
0.0
  0
LINE
  5
10F
330
18
100
AcDbEntity
  8
LEVEL001
  6
Continuous
 62
     3
370
    20
100
AcDbLine
 10
78.978831405393
 20
51.623783903068
 30
0.0
 11
74.916331405394
 21
49.278298434485
 31
0.0
  0
LINE
  5
110
330
18
100
AcDbEntity
  8
LEVEL001
  6
Continuous
 62
     3
370
    20
100
AcDbLine
 10
78.978831405393
 20
51.407277552122
 30
0.0
 11
74.916331405394
 21
49.061792083539
 31
0.0
  0
LINE
  5
111
330
18
100
AcDbEntity
  8
LEVEL001
  6
Continuous
 62
     3
370
    20
100
AcDbLine
 10
21.60147601476
 20
21.329580373114
 30
0.0
 11
46.60147601476
 21
21.329580373114
 31
0.0
  0
TEXT
  5
112
330
18
100
AcDbEntity
  8
LEVEL001
 62
     3
370
    20
100
AcDbText
 10
356.6
 20
41.0
 30
0.0
 40
4.0
  1
１６ＦＰ－Ｕｚｘ
 72
     5
 11
388.6
 21
41.0
 31
0.0
100
AcDbText
  0
TEXT
  5
113
330
18
100
AcDbEntity
  8
LEVEL001
 62
     3
370
    20
100
AcDbText
 10
356.6
 20
21.109792452098
 30
0.0
 40
4.0
  1
ＦＰ１６０Ｕｚｘ
 72
     5
 11
388.6
 21
21.109792452098
 31
0.0
100
AcDbText
  0
TEXT
  5
114
330
18
100
AcDbEntity
  8
LEVEL001
 62
     3
370
    20
100
AcDbText
 10
387.0
 20
141.0
 30
0.0
 40
3.0
  1
ＡＣ７Ａ－Ｆ
 41
0.66666666666667
 72
     5
 11
399.0
 21
141.0
 31
0.0
100
AcDbText
  0
TEXT
  5
115
330
18
100
AcDbEntity
  8
LEVEL001
 62
     3
370
    20
100
AcDbText
 10
354.0
 20
12.0
 30
0.0
 40
6.0
  1
株式会社ＳＤＡＴ
 72
     5
 11
402.0
 21
12.0
 31
0.0
100
AcDbText
  0
TEXT
  5
116
330
18
100
AcDbEntity
  8
LEVEL001
 62
     3
370
    20
100
AcDbText
 10
387.0
 20
111.0
 30
0.0
 40
3.0
  1
Ａ６０６３－Ｔ６
 41
0.66666666666667
 72
     5
 11
403.0
 21
111.0
 31
0.0
100
AcDbText
  0
TEXT
  5
117
330
18
100
AcDbEntity
  8
LEVEL001
 62
     3
370
    20
100
AcDbText
 10
387.0
 20
106.0
 30
0.0
 40
3.0
  1
Ａ６０６３－Ｔ６
 41
0.66666666666667
 72
     5
 11
403.0
 21
106.0
 31
0.0
100
AcDbText
  0
TEXT
  5
118
330
18
100
AcDbEntity
  8
LEVEL001
 62
     3
370
    20
100
AcDbText
 10
387.0
 20
116.0
 30
0.0
 40
3.0
  1
Ａ６０６３－Ｔ６
 41
0.66666666666667
 72
     5
 11
403.0
 21
116.0
 31
0.0
100
AcDbText
  0
TEXT
  5
119
330
18
100
AcDbEntity
  8
LEVEL001
 62
     3
370
    20
100
AcDbText
 10
387.0
 20
121.0
 30
0.0
 40
3.0
  1
Ａ６０６３－Ｔ６
 41
0.66666666666667
 72
     5
 11
403.0
 21
121.0
 31
0.0
100
AcDbText
  0
TEXT
  5
11A
330
18
100
AcDbEntity
  8
LEVEL001
 62
     3
370
    20
100
AcDbText
 10
21.60147601476
 20
21.454580373114
 30
0.0
 40
5.0
  1
ポール姿図
 72
     5
 11
46.60147601476
 21
21.454580373114
 31
0.0
100
AcDbText
  0
TEXT
  5
11B
330
18
100
AcDbEntity
  8
LEVEL001
 62
     3
370
    20
100
AcDbText
 10
26.60147601476
 20
15.396588138572
 30
0.0
 40
5.0
  1
Ｓ＝１：８０
 41
0.5
 72
     5
 11
41.60147601476
 21
15.396588138572
 31
0.0
100
AcDbText
  0
TEXT
  5
11C
330
18
100
AcDbEntity
  8
LEVEL001
 62
     3
370
    20
100
AcDbText
 10
109.28458974389
 20
22.774596808303
 30
0.0
 40
4.0
  1
※２重管元材寸法
 41
0.875
 72
     5
 11
137.28458974389
 21
22.774596808303
 31
0.0
100
AcDbText
  0
TEXT
  5
11D
330
18
100
AcDbEntity
  8
LEVEL001
 62
     3
370
    20
100
AcDbText
 10
109.28458974389
 20
17.441263474969
 30
0.0
 40
4.0
  1
\U+2205２１４×ｔ４．５（外管）
 41
0.875
 72
     5
 11
154.78458974389
 21
17.441263474969
 31
0.0
100
AcDbText
  0
TEXT
  5
11E
330
18
100
AcDbEntity
  8
LEVEL001
 62
     3
370
    20
100
AcDbText
 10
109.28458974389
 20
12.107930141636
 30
0.0
 40
4.0
  1
\U+2205２００×ｔ５．０（２重管）
 41
0.875
 72
     5
 11
158.28458974389
 21
12.107930141636
 31
0.0
100
AcDbText
  0
LINE
  5
11F
330
18
100
AcDbEntity
  8
LEVEL001
  6
Continuous
 62
     1
370
    15
100
AcDbLine
 10
80.072581405394
 20
268.62260788757
 30
0.0
 11
80.072581405394
 21
278.13701212704
 31
0.0
  0
LINE
  5
120
330
18
100
AcDbEntity
  8
LEVEL001
  6
Continuous
 62
     1
370
    15
100
AcDbLine
 10
81.010081405394
 20
268.62260788757
 30
0.0
 11
81.010081405394
 21
278.13701212704
 31
0.0
  0
LINE
  5
121
330
18
100
AcDbEntity
  8
LEVEL001
  6
Continuous
 62
     1
370
    15
100
AcDbLine
 10
76.322581405394
 20
276.13701212704
 30
0.0
 11
80.541331405394
 21
276.13701212704
 31
0.0
  0
LINE
  5
122
330
18
100
AcDbEntity
  8
LEVEL001
  6
Continuous
 62
     1
370
    15
100
AcDbLine
 10
84.760081405394
 20
276.13701212704
 30
0.0
 11
80.541331405394
 21
276.13701212704
 31
0.0
  0
LINE
  5
123
330
18
100
AcDbEntity
  8
LEVEL001
  6
Continuous
 62
     1
370
    15
100
AcDbLine
 10
80.072581405394
 20
276.13701212704
 30
0.0
 11
77.072581405394
 21
276.94085970433
 31
0.0
  0
LINE
  5
124
330
18
100
AcDbEntity
  8
LEVEL001
  6
Continuous
 62
     1
370
    15
100
AcDbLine
 10
80.072581405394
 20
276.13701212704
 30
0.0
 11
77.072581405394
 21
275.33316454975
 31
0.0
  0
LINE
  5
125
330
18
100
AcDbEntity
  8
LEVEL001
  6
Continuous
 62
     1
370
    15
100
AcDbLine
 10
81.010081405394
 20
276.13701212704
 30
0.0
 11
84.010081405394
 21
275.33316454975
 31
0.0
  0
LINE
  5
126
330
18
100
AcDbEntity
  8
LEVEL001
  6
Continuous
 62
     1
370
    15
100
AcDbLine
 10
81.010081405394
 20
276.13701212704
 30
0.0
 11
84.010081405394
 21
276.94085970433
 31
0.0
  0
MTEXT
  5
127
330
18
100
AcDbEntity
  8
LEVEL001
 62
     3
370
    20
100
AcDbMText
 10
80.541331405394
 20
277.85129784133
 30
0.0
 40
4.0
 41
0.0
 71
     8
 72
     1
  1
\A1;(%%c75)
 73
     1
 44
1.0
  0
LINE
  5
128
330
18
100
AcDbEntity
  8
LEVEL001
  6
Continuous
 62
     1
370
    15
100
AcDbLine
 10
79.720919363656
 20
268.08660058941
 30
0.0
 11
71.48592421425
 21
272.73505987335
 31
0.0
  0
CIRCLE
  5
129
330
18
100
AcDbEntity
  8
LEVEL001
  6
Continuous
 62
     1
370
    15
100
AcDbCircle
 10
68.002567530608
 20
274.70133203522
 30
0.0
 40
4.0
  0
LINE
  5
12A
330
18
100
AcDbEntity
  8
LEVEL001
  6
Continuous
 62
     1
370
    15
100
AcDbLine
 10
79.720919363656
 20
268.08660058941
 30
0.0
 11
77.503547629328
 21
270.26132666855
 31
0.0
  0
LINE
  5
12B
330
18
100
AcDbEntity
  8
LEVEL001
  6
Continuous
 62
     1
370
    15
100
AcDbLine
 10
79.720919363656
 20
268.08660058941
 30
0.0
 11
76.713256072521
 21
268.86128275306
 31
0.0
  0
MTEXT
  5
12C
330
18
100
AcDbEntity
  8
LEVEL001
 62
     3
370
    20
100
AcDbMText
 10
65.174140405862
 20
271.87290491047
 30
0.0
 40
5.6568542494924
 41
0.0
 71
     7
 72
     1
  1
\A1;２
 73
     1
 44
1.0
  0
POLYLINE
  5
12D
330
18
100
AcDbEntity
  8
LEVEL001
  6
Continuous
 62
     1
370
    15
100
AcDb2dPolyline
 66
     1
 10
0.0
 20
0.0
 30
0.0
  0
VERTEX
  5
12E
330
12D
100
AcDbEntity
  8
LEVEL001
  6
Continuous
 62
     1
100
AcDbVertex
100
AcDb2dVertex
 10
84.157685691671
 20
58.747272818784
 30
0.0
  0
VERTEX
  5
12F
330
12D
100
AcDbEntity
  8
LEVEL001
  6
Continuous
 62
     1
100
AcDbVertex
100
AcDb2dVertex
 10
92.678529343801
 20
50.991120263639
 30
0.0
  0
VERTEX
  5
130
330
12D
100
AcDbEntity
  8
LEVEL001
  6
Continuous
 62
     1
100
AcDbVertex
100
AcDb2dVertex
 10
120.6785293438
 20
50.991120263639
 30
0.0
  0
SEQEND
  5
131
330
12D
100
AcDbEntity
  8
LEVEL001
  6
Continuous
 62
     1
  0
LINE
  5
132
330
18
100
AcDbEntity
  8
LEVEL001
  6
Continuous
 62
     1
370
    15
100
AcDbLine
 10
84.157685691671
 20
58.747272818784
 30
0.0
 11
85.835112837324
 21
56.133385082375
 31
0.0
  0
LINE
  5
133
330
18
100
AcDbEntity
  8
LEVEL001
  6
Continuous
 62
     1
370
    15
100
AcDbLine
 10
84.157685691671
 20
58.747272818784
 30
0.0
 11
86.917324081008
 21
57.32229320924
 31
0.0
  0
MTEXT
  5
134
102
{ACAD_REACTORS
330
133
102
}
330
18
100
AcDbEntity
  8
LEVEL001
 62
     3
370
    20
100
AcDbMText
 10
92.678529343801
 20
52.705405977925
 30
0.0
 40
4.0
 41
0.0
 71
     7
 72
     1
  1
\A1;基礎コンクリート
 73
     1
 44
1.0
  0
POLYLINE
  5
135
330
18
100
AcDbEntity
  8
LEVEL001
  6
Continuous
 62
     1
370
    15
100
AcDb2dPolyline
 66
     1
 10
0.0
 20
0.0
 30
0.0
  0
VERTEX
  5
136
330
135
100
AcDbEntity
  8
LEVEL001
  6
Continuous
 62
     1
100
AcDbVertex
100
AcDb2dVertex
 10
81.791331405394
 20
54.942428978079
 30
0.0
  0
VERTEX
  5
137
330
135
100
AcDbEntity
  8
LEVEL001
  6
Continuous
 62
     1
100
AcDbVertex
100
AcDb2dVertex
 10
93.552462026071
 20
44.108900390765
 30
0.0
  0
VERTEX
  5
138
330
135
100
AcDbEntity
  8
LEVEL001
  6
Continuous
 62
     1
100
AcDbVertex
100
AcDb2dVertex
 10
118.05246202607
 20
44.108900390765
 30
0.0
  0
SEQEND
  5
139
330
135
100
AcDbEntity
  8
LEVEL001
  6
Continuous
 62
     1
  0
LINE
  5
13A
330
18
100
AcDbEntity
  8
LEVEL001
  6
Continuous
 62
     1
370
    15
100
AcDbLine
 10
81.791331405394
 20
54.942428978079
 30
0.0
 11
83.453269856475
 21
52.318666124402
 31
0.0
  0
LINE
  5
13B
330
18
100
AcDbEntity
  8
LEVEL001
  6
Continuous
 62
     1
370
    15
100
AcDbLine
 10
81.791331405394
 20
54.942428978079
 30
0.0
 11
84.542493750395
 21
53.50115291883
 31
0.0
  0
MTEXT
  5
13C
102
{ACAD_REACTORS
330
13B
102
}
330
18
100
AcDbEntity
  8
LEVEL001
 62
     3
370
    20
100
AcDbMText
 10
93.552462026071
 20
45.823186105051
 30
0.0
 40
4.0
 41
0.0
 71
     7
 72
     1
  1
\A1;埋込部黒色塗装
 73
     1
 44
1.0
  0
LINE
  5
13D
330
18
100
AcDbEntity
  8
LEVEL001
  6
Continuous
 62
     1
370
    15
100
AcDbLine
 10
83.666331405394
 20
61.622607887571
 30
0.0
 11
110.53569915299
 21
61.622607887571
 31
0.0
  0
LINE
  5
13E
330
18
100
AcDbEntity
  8
LEVEL001
  6
Continuous
 62
     1
370
    15
100
AcDbLine
 10
83.666331405394
 20
91.622607887572
 30
0.0
 11
110.53569915299
 21
91.622607887572
 31
0.0
  0
LINE
  5
13F
330
18
100
AcDbEntity
  8
LEVEL001
  6
Continuous
 62
     1
370
    15
100
AcDbLine
 10
108.53569915299
 20
61.622607887571
 30
0.0
 11
108.53569915299
 21
76.622607887572
 31
0.0
  0
LINE
  5
140
330
18
100
AcDbEntity
  8
LEVEL001
  6
Continuous
 62
     1
370
    15
100
AcDbLine
 10
108.53569915299
 20
91.622607887572
 30
0.0
 11
108.53569915299
 21
76.622607887572
 31
0.0
  0
LINE
  5
141
330
18
100
AcDbEntity
  8
LEVEL001
  6
Continuous
 62
     1
370
    15
100
AcDbLine
 10
108.53569915299
 20
61.622607887571
 30
0.0
 11
109.33954673029
 21
64.622607887571
 31
0.0
  0
LINE
  5
142
330
18
100
AcDbEntity
  8
LEVEL001
  6
Continuous
 62
     1
370
    15
100
AcDbLine
 10
108.53569915299
 20
61.622607887571
 30
0.0
 11
107.7318515757
 21
64.622607887571
 31
0.0
  0
LINE
  5
143
330
18
100
AcDbEntity
  8
LEVEL001
  6
Continuous
 62
     1
370
    15
100
AcDbLine
 10
108.53569915299
 20
91.622607887572
 30
0.0
 11
107.7318515757
 21
88.622607887572
 31
0.0
  0
LINE
  5
144
330
18
100
AcDbEntity
  8
LEVEL001
  6
Continuous
 62
     1
370
    15
100
AcDbLine
 10
108.53569915299
 20
91.622607887572
 30
0.0
 11
109.33954673029
 21
88.622607887572
 31
0.0
  0
MTEXT
  5
145
330
18
100
AcDbEntity
  8
LEVEL001
 62
     3
370
    20
100
AcDbMText
 10
106.82141343871
 20
76.622607887572
 30
0.0
 40
4.0
 41
0.0
 71
     8
 72
     1
  1
\A1;(2400)
 11
0.0
 21
1.0
 31
0.0
 73
     1
 44
1.0
  0
LINE
  5
146
330
18
100
AcDbEntity
  8
LEVEL001
  6
Continuous
 62
     1
370
    15
100
AcDbLine
 10
77.978831405393
 20
229.12260788757
 30
0.0
 11
38.220450525525
 21
229.12260788757
 31
0.0
  0
LINE
  5
147
330
18
100
AcDbEntity
  8
LEVEL001
  6
Continuous
 62
     1
370
    15
100
AcDbLine
 10
78.072581405394
 20
266.62260788758
 30
0.0
 11
38.220450525525
 21
266.62260788758
 31
0.0
  0
LINE
  5
148
330
18
100
AcDbEntity
  8
LEVEL001
  6
Continuous
 62
     1
370
    15
100
AcDbLine
 10
40.220450525525
 20
229.12260788757
 30
0.0
 11
40.220450525525
 21
247.87260788757
 31
0.0
  0
LINE
  5
149
330
18
100
AcDbEntity
  8
LEVEL001
  6
Continuous
 62
     1
370
    15
100
AcDbLine
 10
40.220450525525
 20
266.62260788758
 30
0.0
 11
40.220450525525
 21
247.87260788757
 31
0.0
  0
LINE
  5
14A
330
18
100
AcDbEntity
  8
LEVEL001
  6
Continuous
 62
     1
370
    15
100
AcDbLine
 10
40.220450525525
 20
229.12260788757
 30
0.0
 11
41.024298102819
 21
232.12260788757
 31
0.0
  0
LINE
  5
14B
330
18
100
AcDbEntity
  8
LEVEL001
  6
Continuous
 62
     1
370
    15
100
AcDbLine
 10
40.220450525525
 20
229.12260788757
 30
0.0
 11
39.416602948232
 21
232.12260788757
 31
0.0
  0
LINE
  5
14C
330
18
100
AcDbEntity
  8
LEVEL001
  6
Continuous
 62
     1
370
    15
100
AcDbLine
 10
40.220450525525
 20
266.62260788758
 30
0.0
 11
39.416602948232
 21
263.62260788758
 31
0.0
  0
LINE
  5
14D
330
18
100
AcDbEntity
  8
LEVEL001
  6
Continuous
 62
     1
370
    15
100
AcDbLine
 10
40.220450525525
 20
266.62260788758
 30
0.0
 11
41.024298102819
 21
263.62260788758
 31
0.0
  0
MTEXT
  5
14E
330
18
100
AcDbEntity
  8
LEVEL001
 62
     3
370
    20
100
AcDbMText
 10
38.50616481124
 20
247.87260788757
 30
0.0
 40
4.0
 41
0.0
 71
     8
 72
     1
  1
\A1;(3000)
 11
0.0
 21
1.0
 31
0.0
 73
     1
 44
1.0
  0
LINE
  5
14F
330
18
100
AcDbEntity
  8
LEVEL001
  6
Continuous
 62
     1
370
    15
100
AcDbLine
 10
77.791331405394
 20
191.62260788757
 30
0.0
 11
38.220450525525
 21
191.62260788757
 31
0.0
  0
LINE
  5
150
330
18
100
AcDbEntity
  8
LEVEL001
  6
Continuous
 62
     1
370
    15
100
AcDbLine
 10
77.978831405393
 20
229.12260788757
 30
0.0
 11
38.220450525525
 21
229.12260788757
 31
0.0
  0
LINE
  5
151
330
18
100
AcDbEntity
  8
LEVEL001
  6
Continuous
 62
     1
370
    15
100
AcDbLine
 10
40.220450525525
 20
191.62260788757
 30
0.0
 11
40.220450525525
 21
210.37260788757
 31
0.0
  0
LINE
  5
152
330
18
100
AcDbEntity
  8
LEVEL001
  6
Continuous
 62
     1
370
    15
100
AcDbLine
 10
40.220450525525
 20
229.12260788757
 30
0.0
 11
40.220450525525
 21
210.37260788757
 31
0.0
  0
LINE
  5
153
330
18
100
AcDbEntity
  8
LEVEL001
  6
Continuous
 62
     1
370
    15
100
AcDbLine
 10
40.220450525525
 20
191.62260788757
 30
0.0
 11
41.024298102819
 21
194.62260788757
 31
0.0
  0
LINE
  5
154
330
18
100
AcDbEntity
  8
LEVEL001
  6
Continuous
 62
     1
370
    15
100
AcDbLine
 10
40.220450525525
 20
191.62260788757
 30
0.0
 11
39.416602948232
 21
194.62260788757
 31
0.0
  0
LINE
  5
155
330
18
100
AcDbEntity
  8
LEVEL001
  6
Continuous
 62
     1
370
    15
100
AcDbLine
 10
40.220450525525
 20
229.12260788757
 30
0.0
 11
39.416602948232
 21
226.12260788757
 31
0.0
  0
LINE
  5
156
330
18
100
AcDbEntity
  8
LEVEL001
  6
Continuous
 62
     1
370
    15
100
AcDbLine
 10
40.220450525525
 20
229.12260788757
 30
0.0
 11
41.024298102819
 21
226.12260788757
 31
0.0
  0
MTEXT
  5
157
330
18
100
AcDbEntity
  8
LEVEL001
 62
     3
370
    20
100
AcDbMText
 10
38.50616481124
 20
210.37260788757
 30
0.0
 40
4.0
 41
0.0
 71
     8
 72
     1
  1
\A1;(3000)
 11
0.0
 21
1.0
 31
0.0
 73
     1
 44
1.0
  0
LINE
  5
158
330
18
100
AcDbEntity
  8
LEVEL001
  6
Continuous
 62
     1
370
    15
100
AcDbLine
 10
77.510081405394
 20
129.12260788757
 30
0.0
 11
38.220450525525
 21
129.12260788757
 31
0.0
  0
LINE
  5
159
330
18
100
AcDbEntity
  8
LEVEL001
  6
Continuous
 62
     1
370
    15
100
AcDbLine
 10
77.791331405394
 20
191.62260788757
 30
0.0
 11
38.220450525525
 21
191.62260788757
 31
0.0
  0
LINE
  5
15A
330
18
100
AcDbEntity
  8
LEVEL001
  6
Continuous
 62
     1
370
    15
100
AcDbLine
 10
40.220450525525
 20
129.12260788757
 30
0.0
 11
40.220450525525
 21
160.37260788757
 31
0.0
  0
LINE
  5
15B
330
18
100
AcDbEntity
  8
LEVEL001
  6
Continuous
 62
     1
370
    15
100
AcDbLine
 10
40.220450525525
 20
191.62260788757
 30
0.0
 11
40.220450525525
 21
160.37260788757
 31
0.0
  0
LINE
  5
15C
330
18
100
AcDbEntity
  8
LEVEL001
  6
Continuous
 62
     1
370
    15
100
AcDbLine
 10
40.220450525525
 20
129.12260788757
 30
0.0
 11
41.024298102819
 21
132.12260788757
 31
0.0
  0
LINE
  5
15D
330
18
100
AcDbEntity
  8
LEVEL001
  6
Continuous
 62
     1
370
    15
100
AcDbLine
 10
40.220450525525
 20
129.12260788757
 30
0.0
 11
39.416602948232
 21
132.12260788757
 31
0.0
  0
LINE
  5
15E
330
18
100
AcDbEntity
  8
LEVEL001
  6
Continuous
 62
     1
370
    15
100
AcDbLine
 10
40.220450525525
 20
191.62260788757
 30
0.0
 11
39.416602948232
 21
188.62260788757
 31
0.0
  0
LINE
  5
15F
330
18
100
AcDbEntity
  8
LEVEL001
  6
Continuous
 62
     1
370
    15
100
AcDbLine
 10
40.220450525525
 20
191.62260788757
 30
0.0
 11
41.024298102819
 21
188.62260788757
 31
0.0
  0
MTEXT
  5
160
330
18
100
AcDbEntity
  8
LEVEL001
 62
     3
370
    20
100
AcDbMText
 10
38.50616481124
 20
160.37260788757
 30
0.0
 40
4.0
 41
0.0
 71
     8
 72
     1
  1
\A1;(5000)
 11
0.0
 21
1.0
 31
0.0
 73
     1
 44
1.0
  0
LINE
  5
161
330
18
100
AcDbEntity
  8
LEVEL001
  6
Continuous
 62
     1
370
    15
100
AcDbLine
 10
81.393044967767
 20
230.53682144994
 30
0.0
 11
89.031366893171
 21
238.17514337535
 31
0.0
  0
LINE
  5
162
330
18
100
AcDbEntity
  8
LEVEL001
  6
Continuous
 62
     1
370
    15
100
AcDbLine
 10
82.518044967767
 20
230.53682144994
 30
0.0
 11
90.156366893171
 21
238.17514337535
 31
0.0
  0
LINE
  5
163
330
18
100
AcDbEntity
  8
LEVEL001
  6
Continuous
 62
     1
370
    15
100
AcDbLine
 10
83.867153330798
 20
236.76092981298
 30
0.0
 11
88.179653330798
 21
236.76092981298
 31
0.0
  0
LINE
  5
164
330
18
100
AcDbEntity
  8
LEVEL001
  6
Continuous
 62
     1
370
    15
100
AcDbLine
 10
104.28626650798
 20
236.76092981298
 30
0.0
 11
88.179653330798
 21
236.76092981298
 31
0.0
  0
LINE
  5
165
330
18
100
AcDbEntity
  8
LEVEL001
  6
Continuous
 62
     1
370
    15
100
AcDbLine
 10
87.617153330798
 20
236.76092981298
 30
0.0
 11
84.617153330798
 21
237.56477739027
 31
0.0
  0
LINE
  5
166
330
18
100
AcDbEntity
  8
LEVEL001
  6
Continuous
 62
     1
370
    15
100
AcDbLine
 10
87.617153330798
 20
236.76092981298
 30
0.0
 11
84.617153330798
 21
235.95708223568
 31
0.0
  0
LINE
  5
167
330
18
100
AcDbEntity
  8
LEVEL001
  6
Continuous
 62
     1
370
    15
100
AcDbLine
 10
88.742153330798
 20
236.76092981298
 30
0.0
 11
91.742153330798
 21
235.95708223568
 31
0.0
  0
LINE
  5
168
330
18
100
AcDbEntity
  8
LEVEL001
  6
Continuous
 62
     1
370
    15
100
AcDbLine
 10
88.742153330798
 20
236.76092981298
 30
0.0
 11
91.742153330798
 21
237.56477739027
 31
0.0
  0
MTEXT
  5
169
330
18
100
AcDbEntity
  8
LEVEL001
 62
     3
370
    20
100
AcDbMText
 10
93.78626650798
 20
238.47521552726
 30
0.0
 40
4.0
 41
0.0
 71
     7
 72
     1
  1
\A1;%%c90
 73
     1
 44
1.0
  0
LINE
  5
16A
330
18
100
AcDbEntity
  8
LEVEL001
  6
Continuous
 62
     1
370
    15
100
AcDbLine
 10
79.358566183862
 20
106.30062908853
 30
0.0
 11
70.717194603559
 21
112.83996672503
 31
0.0
  0
CIRCLE
  5
16B
330
18
100
AcDbEntity
  8
LEVEL001
  6
Continuous
 62
     1
370
    15
100
AcDbCircle
 10
67.527555084033
 20
115.2537189359
 30
0.0
 40
4.0
  0
LINE
  5
16C
330
18
100
AcDbEntity
  8
LEVEL001
  6
Continuous
 62
     1
370
    15
100
AcDbLine
 10
79.358566183862
 20
106.30062908853
 30
0.0
 11
77.451408760942
 21
108.75193924674
 31
0.0
  0
LINE
  5
16D
330
18
100
AcDbEntity
  8
LEVEL001
  6
Continuous
 62
     1
370
    15
100
AcDbLine
 10
79.358566183862
 20
106.30062908853
 30
0.0
 11
76.481264327495
 21
107.46994724663
 31
0.0
  0
MTEXT
  5
16E
330
18
100
AcDbEntity
  8
LEVEL001
 62
     3
370
    20
100
AcDbMText
 10
63.732821891831
 20
113.98880787184
 30
0.0
 40
2.5298221281347
 41
0.0
 71
     7
 72
     1
  1
\A1;１－１
 73
     1
 44
1.0
  0
LINE
  5
16F
330
18
100
AcDbEntity
  8
LEVEL001
  6
Continuous
 62
     1
370
    15
100
AcDbLine
 10
79.591011979291
 20
162.45608249421
 30
0.0
 11
70.949640398987
 21
168.99542013071
 31
0.0
  0
CIRCLE
  5
170
330
18
100
AcDbEntity
  8
LEVEL001
  6
Continuous
 62
     1
370
    15
100
AcDbCircle
 10
67.760000879462
 20
171.40917234158
 30
0.0
 40
4.0
  0
LINE
  5
171
330
18
100
AcDbEntity
  8
LEVEL001
  6
Continuous
 62
     1
370
    15
100
AcDbLine
 10
79.591011979291
 20
162.45608249421
 30
0.0
 11
77.68385455637
 21
164.90739265241
 31
0.0
  0
LINE
  5
172
330
18
100
AcDbEntity
  8
LEVEL001
  6
Continuous
 62
     1
370
    15
100
AcDbLine
 10
79.591011979291
 20
162.45608249421
 30
0.0
 11
76.713710122923
 21
163.62540065231
 31
0.0
  0
MTEXT
  5
173
330
18
100
AcDbEntity
  8
LEVEL001
 62
     3
370
    20
100
AcDbMText
 10
63.96526768726
 20
170.14426127751
 30
0.0
 40
2.5298221281347
 41
0.0
 71
     7
 72
     1
  1
\A1;１－２
 73
     1
 44
1.0
  0
LINE
  5
174
330
18
100
AcDbEntity
  8
LEVEL001
  6
Continuous
 62
     1
370
    15
100
AcDbLine
 10
79.854894278819
 20
209.88578143282
 30
0.0
 11
71.213522698515
 21
216.42511906932
 31
0.0
  0
CIRCLE
  5
175
330
18
100
AcDbEntity
  8
LEVEL001
  6
Continuous
 62
     1
370
    15
100
AcDbCircle
 10
68.023883178991
 20
218.83887128019
 30
0.0
 40
4.0
  0
LINE
  5
176
330
18
100
AcDbEntity
  8
LEVEL001
  6
Continuous
 62
     1
370
    15
100
AcDbLine
 10
79.854894278819
 20
209.88578143282
 30
0.0
 11
77.947736855898
 21
212.33709159102
 31
0.0
  0
LINE
  5
177
330
18
100
AcDbEntity
  8
LEVEL001
  6
Continuous
 62
     1
370
    15
100
AcDbLine
 10
79.854894278819
 20
209.88578143282
 30
0.0
 11
76.977592422451
 21
211.05509959092
 31
0.0
  0
MTEXT
  5
178
330
18
100
AcDbEntity
  8
LEVEL001
 62
     3
370
    20
100
AcDbMText
 10
64.229149986789
 20
217.57396021613
 30
0.0
 40
2.5298221281347
 41
0.0
 71
     7
 72
     1
  1
\A1;１－３
 73
     1
 44
1.0
  0
LINE
  5
179
330
18
100
AcDbEntity
  8
LEVEL001
  6
Continuous
 62
     1
370
    15
100
AcDbLine
 10
79.978831405393
 20
248.50016606176
 30
0.0
 11
71.89995982509
 21
254.94243248797
 31
0.0
  0
CIRCLE
  5
17A
330
18
100
AcDbEntity
  8
LEVEL001
  6
Continuous
 62
     1
370
    15
100
AcDbCircle
 10
68.772554892786
 20
257.43629262627
 30
0.0
 40
4.0
  0
LINE
  5
17B
330
18
100
AcDbEntity
  8
LEVEL001
  6
Continuous
 62
     1
370
    15
100
AcDbLine
 10
79.978831405393
 20
248.50016606176
 30
0.0
 11
78.134448563734
 21
250.99905038499
 31
0.0
  0
LINE
  5
17C
330
18
100
AcDbEntity
  8
LEVEL001
  6
Continuous
 62
     1
370
    15
100
AcDbLine
 10
79.978831405393
 20
248.50016606176
 30
0.0
 11
77.132106848595
 21
249.74207194597
 31
0.0
  0
MTEXT
  5
17D
330
18
100
AcDbEntity
  8
LEVEL001
 62
     3
370
    20
100
AcDbMText
 10
64.977821700584
 20
256.1713815622
 30
0.0
 40
2.5298221281347
 41
0.0
 71
     7
 72
     1
  1
\A1;１－４
 73
     1
 44
1.0
  0
LINE
  5
17E
330
18
100
AcDbEntity
  8
LEVEL001
  6
Continuous
 62
     1
370
    15
100
AcDbLine
 10
81.205544967766
 20
193.03682144995
 30
0.0
 11
88.722933325256
 21
200.55420980745
 31
0.0
  0
LINE
  5
17F
330
18
100
AcDbEntity
  8
LEVEL001
  6
Continuous
 62
     1
370
    15
100
AcDbLine
 10
82.705544967766
 20
193.03682144995
 30
0.0
 11
90.222933325256
 21
200.55420980745
 31
0.0
  0
LINE
  5
180
330
18
100
AcDbEntity
  8
LEVEL001
  6
Continuous
 62
     1
370
    15
100
AcDbLine
 10
83.558719762884
 20
199.13999624507
 30
0.0
 11
88.058719762884
 21
199.13999624507
 31
0.0
  0
LINE
  5
181
330
18
100
AcDbEntity
  8
LEVEL001
  6
Continuous
 62
     1
370
    15
100
AcDbLine
 10
105.64151630579
 20
199.13999624507
 30
0.0
 11
88.058719762884
 21
199.13999624507
 31
0.0
  0
LINE
  5
182
330
18
100
AcDbEntity
  8
LEVEL001
  6
Continuous
 62
     1
370
    15
100
AcDbLine
 10
87.308719762884
 20
199.13999624507
 30
0.0
 11
84.308719762884
 21
199.94384382237
 31
0.0
  0
LINE
  5
183
330
18
100
AcDbEntity
  8
LEVEL001
  6
Continuous
 62
     1
370
    15
100
AcDbLine
 10
87.308719762884
 20
199.13999624507
 30
0.0
 11
84.308719762884
 21
198.33614866778
 31
0.0
  0
LINE
  5
184
330
18
100
AcDbEntity
  8
LEVEL001
  6
Continuous
 62
     1
370
    15
100
AcDbLine
 10
88.808719762884
 20
199.13999624507
 30
0.0
 11
91.808719762884
 21
198.33614866778
 31
0.0
  0
LINE
  5
185
330
18
100
AcDbEntity
  8
LEVEL001
  6
Continuous
 62
     1
370
    15
100
AcDbLine
 10
88.808719762884
 20
199.13999624507
 30
0.0
 11
91.808719762884
 21
199.94384382237
 31
0.0
  0
MTEXT
  5
186
330
18
100
AcDbEntity
  8
LEVEL001
 62
     3
370
    20
100
AcDbMText
 10
91.641516305789
 20
200.85428195936
 30
0.0
 40
4.0
 41
0.0
 71
     7
 72
     1
  1
\A1;%%c120
 73
     1
 44
1.0
  0
LINE
  5
187
330
18
100
AcDbEntity
  8
LEVEL001
  6
Continuous
 62
     1
370
    15
100
AcDbLine
 10
80.705544967765
 20
98.974321449946
 30
0.0
 11
88.812915118782
 21
107.08169160098
 31
0.0
  0
LINE
  5
188
330
18
100
AcDbEntity
  8
LEVEL001
  6
Continuous
 62
     1
370
    15
100
AcDbLine
 10
83.205544967765
 20
98.974321449946
 30
0.0
 11
91.312915118782
 21
107.08169160098
 31
0.0
  0
LINE
  5
189
330
18
100
AcDbEntity
  8
LEVEL001
  6
Continuous
 62
     1
370
    15
100
AcDbLine
 10
83.648701556411
 20
105.66747803861
 30
0.0
 11
88.648701556411
 21
105.66747803861
 31
0.0
  0
LINE
  5
18A
330
18
100
AcDbEntity
  8
LEVEL001
  6
Continuous
 62
     1
370
    15
100
AcDbLine
 10
113.67428956272
 20
105.66747803861
 30
0.0
 11
88.648701556411
 21
105.66747803861
 31
0.0
  0
LINE
  5
18B
330
18
100
AcDbEntity
  8
LEVEL001
  6
Continuous
 62
     1
370
    15
100
AcDbLine
 10
87.398701556411
 20
105.66747803861
 30
0.0
 11
84.398701556411
 21
106.4713256159
 31
0.0
  0
LINE
  5
18C
330
18
100
AcDbEntity
  8
LEVEL001
  6
Continuous
 62
     1
370
    15
100
AcDbLine
 10
87.398701556411
 20
105.66747803861
 30
0.0
 11
84.398701556411
 21
104.86363046132
 31
0.0
  0
LINE
  5
18D
330
18
100
AcDbEntity
  8
LEVEL001
  6
Continuous
 62
     1
370
    15
100
AcDbLine
 10
89.898701556411
 20
105.66747803861
 30
0.0
 11
92.898701556411
 21
104.86363046132
 31
0.0
  0
LINE
  5
18E
330
18
100
AcDbEntity
  8
LEVEL001
  6
Continuous
 62
     1
370
    15
100
AcDbLine
 10
89.898701556411
 20
105.66747803861
 30
0.0
 11
92.898701556411
 21
106.4713256159
 31
0.0
  0
MTEXT
  5
18F
330
18
100
AcDbEntity
  8
LEVEL001
 62
     3
370
    20
100
AcDbMText
 10
92.674289562724
 20
107.3817637529
 30
0.0
 40
4.0
 41
0.0
 71
     7
 72
     1
  1
\A1;(%%c200)
 73
     1
 44
1.0
  0
LINE
  5
190
330
18
100
AcDbEntity
  8
LEVEL001
  6
Continuous
 62
     1
370
    15
100
AcDbLine
 10
83.666331405393
 20
61.622607887571
 30
0.0
 11
100.43401894062
 21
61.622607887571
 31
0.0
  0
LINE
  5
191
330
18
100
AcDbEntity
  8
LEVEL001
  6
Continuous
 62
     1
370
    15
100
AcDbLine
 10
88.166331405393
 20
66.622607887572
 30
0.0
 11
100.43401894062
 21
66.622607887572
 31
0.0
  0
LINE
  5
192
330
18
100
AcDbEntity
  8
LEVEL001
  6
Continuous
 62
     1
370
    15
100
AcDbLine
 10
98.434018940623
 20
57.872607887571
 30
0.0
 11
98.434018940623
 21
64.122607887572
 31
0.0
  0
LINE
  5
193
330
18
100
AcDbEntity
  8
LEVEL001
  6
Continuous
 62
     1
370
    15
100
AcDbLine
 10
98.434018940623
 20
80.680877977402
 30
0.0
 11
98.434018940623
 21
64.122607887572
 31
0.0
  0
LINE
  5
194
330
18
100
AcDbEntity
  8
LEVEL001
  6
Continuous
 62
     1
370
    15
100
AcDbLine
 10
98.434018940623
 20
61.622607887571
 30
0.0
 11
97.630171363329
 21
58.622607887571
 31
0.0
  0
LINE
  5
195
330
18
100
AcDbEntity
  8
LEVEL001
  6
Continuous
 62
     1
370
    15
100
AcDbLine
 10
98.434018940623
 20
61.622607887571
 30
0.0
 11
99.237866517916
 21
58.622607887571
 31
0.0
  0
LINE
  5
196
330
18
100
AcDbEntity
  8
LEVEL001
  6
Continuous
 62
     1
370
    15
100
AcDbLine
 10
98.434018940623
 20
66.622607887572
 30
0.0
 11
99.237866517916
 21
69.622607887572
 31
0.0
  0
LINE
  5
197
330
18
100
AcDbEntity
  8
LEVEL001
  6
Continuous
 62
     1
370
    15
100
AcDbLine
 10
98.434018940623
 20
66.622607887572
 30
0.0
 11
97.630171363329
 21
69.622607887572
 31
0.0
  0
MTEXT
  5
198
330
18
100
AcDbEntity
  8
LEVEL001
 62
     3
370
    20
100
AcDbMText
 10
96.719733226337
 20
66.680877977402
 30
0.0
 40
4.0
 41
0.0
 71
     7
 72
     1
  1
\A1;(400)
 11
0.0
 21
1.0
 31
0.0
 73
     1
 44
1.0
  0
LINE
  5
199
330
18
100
AcDbEntity
  8
LEVEL001
  6
Continuous
 62
     1
370
    15
100
AcDbLine
 10
74.916331405394
 20
45.872607887572
 30
0.0
 11
74.916331405394
 21
22.581176213948
 31
0.0
  0
LINE
  5
19A
330
18
100
AcDbEntity
  8
LEVEL001
  6
Continuous
 62
     1
370
    15
100
AcDbLine
 10
86.166331405394
 20
45.872607887572
 30
0.0
 11
86.166331405394
 21
22.581176213948
 31
0.0
  0
LINE
  5
19B
330
18
100
AcDbEntity
  8
LEVEL001
  6
Continuous
 62
     1
370
    15
100
AcDbLine
 10
58.359854522519
 20
24.581176213948
 30
0.0
 11
80.541331405394
 21
24.581176213948
 31
0.0
  0
LINE
  5
19C
330
18
100
AcDbEntity
  8
LEVEL001
  6
Continuous
 62
     1
370
    15
100
AcDbLine
 10
86.166331405394
 20
24.581176213948
 30
0.0
 11
80.541331405394
 21
24.581176213948
 31
0.0
  0
LINE
  5
19D
330
18
100
AcDbEntity
  8
LEVEL001
  6
Continuous
 62
     1
370
    15
100
AcDbLine
 10
74.916331405394
 20
24.581176213948
 30
0.0
 11
77.916331405394
 21
23.777328636654
 31
0.0
  0
LINE
  5
19E
330
18
100
AcDbEntity
  8
LEVEL001
  6
Continuous
 62
     1
370
    15
100
AcDbLine
 10
74.916331405394
 20
24.581176213948
 30
0.0
 11
77.916331405394
 21
25.385023791241
 31
0.0
  0
LINE
  5
19F
330
18
100
AcDbEntity
  8
LEVEL001
  6
Continuous
 62
     1
370
    15
100
AcDbLine
 10
86.166331405394
 20
24.581176213948
 30
0.0
 11
83.166331405394
 21
25.385023791241
 31
0.0
  0
LINE
  5
1A0
330
18
100
AcDbEntity
  8
LEVEL001
  6
Continuous
 62
     1
370
    15
100
AcDbLine
 10
86.166331405394
 20
24.581176213948
 30
0.0
 11
83.166331405394
 21
23.777328636654
 31
0.0
  0
MTEXT
  5
1A1
330
18
100
AcDbEntity
  8
LEVEL001
 62
     3
370
    20
100
AcDbMText
 10
72.359854522519
 20
26.295461928233
 30
0.0
 40
4.0
 41
0.0
 71
     9
 72
     1
  1
\A1;□900
 73
     1
 44
1.0
  0
LINE
  5
1A2
330
18
100
AcDbEntity
  8
LEVEL001
  6
Continuous
 62
     1
370
    15
100
AcDbLine
 10
73.666331405394
 20
44.622607887572
 30
0.0
 11
73.666331405394
 21
15.632414481608
 31
0.0
  0
LINE
  5
1A3
330
18
100
AcDbEntity
  8
LEVEL001
  6
Continuous
 62
     1
370
    15
100
AcDbLine
 10
87.416331405394
 20
44.622607887572
 30
0.0
 11
87.416331405394
 21
15.632414481608
 31
0.0
  0
LINE
  5
1A4
330
18
100
AcDbEntity
  8
LEVEL001
  6
Continuous
 62
     1
370
    15
100
AcDbLine
 10
54.998829757166
 20
17.632414481608
 30
0.0
 11
80.541331405394
 21
17.632414481608
 31
0.0
  0
LINE
  5
1A5
330
18
100
AcDbEntity
  8
LEVEL001
  6
Continuous
 62
     1
370
    15
100
AcDbLine
 10
87.416331405394
 20
17.632414481608
 30
0.0
 11
80.541331405394
 21
17.632414481608
 31
0.0
  0
LINE
  5
1A6
330
18
100
AcDbEntity
  8
LEVEL001
  6
Continuous
 62
     1
370
    15
100
AcDbLine
 10
73.666331405394
 20
17.632414481608
 30
0.0
 11
76.666331405394
 21
16.828566904315
 31
0.0
  0
LINE
  5
1A7
330
18
100
AcDbEntity
  8
LEVEL001
  6
Continuous
 62
     1
370
    15
100
AcDbLine
 10
73.666331405394
 20
17.632414481608
 30
0.0
 11
76.666331405394
 21
18.436262058901
 31
0.0
  0
LINE
  5
1A8
330
18
100
AcDbEntity
  8
LEVEL001
  6
Continuous
 62
     1
370
    15
100
AcDbLine
 10
87.416331405394
 20
17.632414481608
 30
0.0
 11
84.416331405394
 21
18.436262058901
 31
0.0
  0
LINE
  5
1A9
330
18
100
AcDbEntity
  8
LEVEL001
  6
Continuous
 62
     1
370
    15
100
AcDbLine
 10
87.416331405394
 20
17.632414481608
 30
0.0
 11
84.416331405394
 21
16.828566904315
 31
0.0
  0
MTEXT
  5
1AA
330
18
100
AcDbEntity
  8
LEVEL001
 62
     3
370
    20
100
AcDbMText
 10
72.498829757166
 20
19.346700195894
 30
0.0
 40
4.0
 41
0.0
 71
     9
 72
     1
  1
\A1;□1100
 73
     1
 44
1.0
  0
LINE
  5
1AB
330
18
100
AcDbEntity
  8
LEVEL001
  6
Continuous
 62
     1
370
    15
100
AcDbLine
 10
71.666331405394
 20
46.622607887572
 30
0.0
 11
23.037891838301
 21
46.622607887572
 31
0.0
  0
LINE
  5
1AC
330
18
100
AcDbEntity
  8
LEVEL001
  6
Continuous
 62
     1
370
    15
100
AcDbLine
 10
71.666331405394
 20
47.872607887572
 30
0.0
 11
23.037891838301
 21
47.872607887572
 31
0.0
  0
LINE
  5
1AD
330
18
100
AcDbEntity
  8
LEVEL001
  6
Continuous
 62
     1
370
    15
100
AcDbLine
 10
25.037891838301
 20
33.700788930305
 30
0.0
 11
25.037891838301
 21
47.247607887572
 31
0.0
  0
LINE
  5
1AE
330
18
100
AcDbEntity
  8
LEVEL001
  6
Continuous
 62
     1
370
    15
100
AcDbLine
 10
25.037891838301
 20
51.622607887572
 30
0.0
 11
25.037891838301
 21
47.247607887572
 31
0.0
  0
LINE
  5
1AF
330
18
100
AcDbEntity
  8
LEVEL001
  6
Continuous
 62
     1
370
    15
100
AcDbLine
 10
25.037891838301
 20
46.622607887572
 30
0.0
 11
24.234044261008
 21
43.622607887572
 31
0.0
  0
LINE
  5
1B0
330
18
100
AcDbEntity
  8
LEVEL001
  6
Continuous
 62
     1
370
    15
100
AcDbLine
 10
25.037891838301
 20
46.622607887572
 30
0.0
 11
25.841739415594
 21
43.622607887572
 31
0.0
  0
LINE
  5
1B1
330
18
100
AcDbEntity
  8
LEVEL001
  6
Continuous
 62
     1
370
    15
100
AcDbLine
 10
25.037891838301
 20
47.872607887572
 30
0.0
 11
25.841739415594
 21
50.872607887572
 31
0.0
  0
LINE
  5
1B2
330
18
100
AcDbEntity
  8
LEVEL001
  6
Continuous
 62
     1
370
    15
100
AcDbLine
 10
25.037891838301
 20
47.872607887572
 30
0.0
 11
24.234044261008
 21
50.872607887572
 31
0.0
  0
MTEXT
  5
1B3
330
18
100
AcDbEntity
  8
LEVEL001
 62
     3
370
    20
100
AcDbMText
 10
23.323606124015
 20
44.200788930305
 30
0.0
 40
4.0
 41
0.0
 71
     9
 72
     1
  1
\A1;100
 11
0.0
 21
1.0
 31
0.0
 73
     1
 44
1.0
  0
LINE
  5
1B4
330
18
100
AcDbEntity
  8
LEVEL001
  6
Continuous
 62
     1
370
    15
100
AcDbLine
 10
78.578564714
 20
67.268989451318
 30
0.0
 11
71.04927192074
 21
73.106004377597
 31
0.0
  0
CIRCLE
  5
1B5
330
18
100
AcDbEntity
  8
LEVEL001
  6
Continuous
 62
     1
370
    15
100
AcDbCircle
 10
67.8879803204
 20
75.556766589159
 30
0.0
 40
4.0
  0
LINE
  5
1B6
330
18
100
AcDbEntity
  8
LEVEL001
  6
Continuous
 62
     1
370
    15
100
AcDbLine
 10
78.578564714
 20
67.268989451318
 30
0.0
 11
76.700105830316
 21
69.742360258502
 31
0.0
  0
LINE
  5
1B7
330
18
100
AcDbEntity
  8
LEVEL001
  6
Continuous
 62
     1
370
    15
100
AcDbLine
 10
78.578564714
 20
67.268989451318
 30
0.0
 11
75.715086197173
 21
68.471761961477
 31
0.0
  0
MTEXT
  5
1B8
330
18
100
AcDbEntity
  8
LEVEL001
 62
     3
370
    20
100
AcDbMText
 10
65.059553195654
 20
72.728339464413
 30
0.0
 40
5.6568542494924
 41
0.0
 71
     7
 72
     1
  1
\A1;５
 73
     1
 44
1.0
  0
POLYLINE
  5
1B9
330
18
100
AcDbEntity
  8
LEVEL001
  6
Continuous
 62
     1
370
    15
100
AcDb2dPolyline
 66
     1
 10
0.0
 20
0.0
 30
0.0
  0
VERTEX
  5
1BA
330
1B9
100
AcDbEntity
  8
LEVEL001
  6
Continuous
 62
     1
100
AcDbVertex
100
AcDb2dVertex
 10
80.728831405393
 20
45.997607887572
 30
0.0
  0
VERTEX
  5
1BB
330
1B9
100
AcDbEntity
  8
LEVEL001
  6
Continuous
 62
     1
100
AcDbVertex
100
AcDb2dVertex
 10
91.914720660121
 20
29.188695687695
 30
0.0
  0
VERTEX
  5
1BC
330
1B9
100
AcDbEntity
  8
LEVEL001
  6
Continuous
 62
     1
100
AcDbVertex
100
AcDb2dVertex
 10
112.91472066012
 20
29.188695687695
 30
0.0
  0
SEQEND
  5
1BD
330
1B9
100
AcDbEntity
  8
LEVEL001
  6
Continuous
 62
     1
  0
LINE
  5
1BE
330
18
100
AcDbEntity
  8
LEVEL001
  6
Continuous
 62
     1
370
    15
100
AcDbLine
 10
80.728831405393
 20
45.997607887572
 30
0.0
 11
81.721658899547
 21
43.054741173911
 31
0.0
  0
LINE
  5
1BF
330
18
100
AcDbEntity
  8
LEVEL001
  6
Continuous
 62
     1
370
    15
100
AcDbLine
 10
80.728831405393
 20
45.997607887572
 30
0.0
 11
83.060078593737
 21
43.945424300667
 31
0.0
  0
MTEXT
  5
1C0
102
{ACAD_REACTORS
330
1BF
102
}
330
18
100
AcDbEntity
  8
LEVEL001
 62
     3
370
    20
100
AcDbMText
 10
91.914720660121
 20
30.90298140198
 30
0.0
 40
4.0
 41
0.0
 71
     7
 72
     1
  1
\A1;水抜きパイプ
 73
     1
 44
1.0
  0
POLYLINE
  5
1C1
330
18
100
AcDbEntity
  8
LEVEL001
  6
Continuous
 62
     1
370
    15
100
AcDb2dPolyline
 66
     1
 10
0.0
 20
0.0
 30
0.0
  0
VERTEX
  5
1C2
330
1C1
100
AcDbEntity
  8
LEVEL001
  6
Continuous
 62
     1
100
AcDbVertex
100
AcDb2dVertex
 10
87.022138189987
 20
46.995082670096
 30
0.0
  0
VERTEX
  5
1C3
330
1C1
100
AcDbEntity
  8
LEVEL001
  6
Continuous
 62
     1
100
AcDbVertex
100
AcDb2dVertex
 10
95.805108862896
 20
36.233452703531
 30
0.0
  0
VERTEX
  5
1C4
330
1C1
100
AcDbEntity
  8
LEVEL001
  6
Continuous
 62
     1
100
AcDbVertex
100
AcDb2dVertex
 10
106.3051088629
 20
36.233452703531
 30
0.0
  0
SEQEND
  5
1C5
330
1C1
100
AcDbEntity
  8
LEVEL001
  6
Continuous
 62
     1
  0
LINE
  5
1C6
330
18
100
AcDbEntity
  8
LEVEL001
  6
Continuous
 62
     1
370
    15
100
AcDbLine
 10
87.022138189987
 20
46.995082670096
 30
0.0
 11
88.296236943971
 21
44.162620262116
 31
0.0
  0
LINE
  5
1C7
330
18
100
AcDbEntity
  8
LEVEL001
  6
Continuous
 62
     1
370
    15
100
AcDbLine
 10
87.022138189987
 20
46.995082670096
 30
0.0
 11
89.541771281857
 21
45.179147646513
 31
0.0
  0
MTEXT
  5
1C8
102
{ACAD_REACTORS
330
1C7
102
}
330
18
100
AcDbEntity
  8
LEVEL001
 62
     3
370
    20
100
AcDbMText
 10
95.805108862896
 20
37.947738417816
 30
0.0
 40
4.0
 41
0.0
 71
     7
 72
     1
  1
\A1;割栗石
 73
     1
 44
1.0
  0
POLYLINE
  5
1C9
330
18
100
AcDbEntity
  8
LEVEL001
  6
Continuous
 62
     1
370
    15
100
AcDb2dPolyline
 66
     1
 10
0.0
 20
0.0
 30
0.0
  0
VERTEX
  5
1CA
330
1C9
100
AcDbEntity
  8
LEVEL001
  6
Continuous
 62
     1
100
AcDbVertex
100
AcDb2dVertex
 10
81.103831405394
 20
229.12260788757
 30
0.0
  0
VERTEX
  5
1CB
330
1C9
100
AcDbEntity
  8
LEVEL001
  6
Continuous
 62
     1
100
AcDbVertex
100
AcDb2dVertex
 10
90.29988853876
 20
220.31097878218
 30
0.0
  0
VERTEX
  5
1CC
330
1C9
100
AcDbEntity
  8
LEVEL001
  6
Continuous
 62
     1
100
AcDbVertex
100
AcDb2dVertex
 10
108.31639093942
 20
220.31097878218
 30
0.0
  0
SEQEND
  5
1CD
330
1C9
100
AcDbEntity
  8
LEVEL001
  6
Continuous
 62
     1
  0
LINE
  5
1CE
330
18
100
AcDbEntity
  8
LEVEL001
  6
Continuous
 62
     1
370
    15
100
AcDbLine
 10
81.103831405394
 20
229.12260788757
 30
0.0
 11
82.713799127792
 21
226.46663822277
 31
0.0
  0
LINE
  5
1CF
330
18
100
AcDbEntity
  8
LEVEL001
  6
Continuous
 62
     1
370
    15
100
AcDbLine
 10
81.103831405394
 20
229.12260788757
 30
0.0
 11
83.826089184665
 21
227.62745454737
 31
0.0
  0
MTEXT
  5
1D0
102
{ACAD_REACTORS
330
1CF
102
}
330
18
100
AcDbEntity
  8
LEVEL001
 62
     3
370
    20
100
AcDbMText
 10
90.816390939419
 20
222.02526449646
 30
0.0
 40
4.0
 41
0.0
 71
     7
 72
     1
  1
\A1;現地結合部
 73
     1
 44
1.0
  0
POLYLINE
  5
1D1
330
18
100
AcDbEntity
  8
LEVEL001
  6
Continuous
 62
     1
370
    15
100
AcDb2dPolyline
 66
     1
 10
0.0
 20
0.0
 30
0.0
  0
VERTEX
  5
1D2
330
1D1
100
AcDbEntity
  8
LEVEL001
  6
Continuous
 62
     1
100
AcDbVertex
100
AcDb2dVertex
 10
81.353831405393
 20
191.62260788757
 30
0.0
  0
VERTEX
  5
1D3
330
1D1
100
AcDbEntity
  8
LEVEL001
  6
Continuous
 62
     1
100
AcDbVertex
100
AcDb2dVertex
 10
90.54988853876
 20
182.81097878217
 30
0.0
  0
VERTEX
  5
1D4
330
1D1
100
AcDbEntity
  8
LEVEL001
  6
Continuous
 62
     1
100
AcDbVertex
100
AcDb2dVertex
 10
108.56639093942
 20
182.81097878217
 30
0.0
  0
SEQEND
  5
1D5
330
1D1
100
AcDbEntity
  8
LEVEL001
  6
Continuous
 62
     1
  0
LINE
  5
1D6
330
18
100
AcDbEntity
  8
LEVEL001
  6
Continuous
 62
     1
370
    15
100
AcDbLine
 10
81.353831405393
 20
191.62260788757
 30
0.0
 11
82.963799127792
 21
188.96663822277
 31
0.0
  0
LINE
  5
1D7
330
18
100
AcDbEntity
  8
LEVEL001
  6
Continuous
 62
     1
370
    15
100
AcDbLine
 10
81.353831405393
 20
191.62260788757
 30
0.0
 11
84.076089184665
 21
190.12745454737
 31
0.0
  0
MTEXT
  5
1D8
102
{ACAD_REACTORS
330
1D7
102
}
330
18
100
AcDbEntity
  8
LEVEL001
 62
     3
370
    20
100
AcDbMText
 10
91.066390939419
 20
184.52526449646
 30
0.0
 40
4.0
 41
0.0
 71
     7
 72
     1
  1
\A1;現地結合部
 73
     1
 44
1.0
  0
POLYLINE
  5
1D9
330
18
100
AcDbEntity
  8
LEVEL001
  6
Continuous
 62
     1
370
    15
100
AcDb2dPolyline
 66
     1
 10
0.0
 20
0.0
 30
0.0
  0
VERTEX
  5
1DA
330
1D9
100
AcDbEntity
  8
LEVEL001
  6
Continuous
 62
     1
100
AcDbVertex
100
AcDb2dVertex
 10
81.572581405394
 20
129.12260788757
 30
0.0
  0
VERTEX
  5
1DB
330
1D9
100
AcDbEntity
  8
LEVEL001
  6
Continuous
 62
     1
100
AcDbVertex
100
AcDb2dVertex
 10
90.83113853876
 20
120.31097878217
 30
0.0
  0
VERTEX
  5
1DC
330
1D9
100
AcDbEntity
  8
LEVEL001
  6
Continuous
 62
     1
100
AcDbVertex
100
AcDb2dVertex
 10
108.84764093942
 20
120.31097878217
 30
0.0
  0
SEQEND
  5
1DD
330
1D9
100
AcDbEntity
  8
LEVEL001
  6
Continuous
 62
     1
  0
LINE
  5
1DE
330
18
100
AcDbEntity
  8
LEVEL001
  6
Continuous
 62
     1
370
    15
100
AcDbLine
 10
81.572581405394
 20
129.12260788757
 30
0.0
 11
83.191525307062
 21
126.47210009268
 31
0.0
  0
LINE
  5
1DF
330
18
100
AcDbEntity
  8
LEVEL001
  6
Continuous
 62
     1
370
    15
100
AcDbLine
 10
81.572581405394
 20
129.12260788757
 30
0.0
 11
84.299881848985
 21
127.6366727551
 31
0.0
  0
MTEXT
  5
1E0
102
{ACAD_REACTORS
330
1DF
102
}
330
18
100
AcDbEntity
  8
LEVEL001
 62
     3
370
    20
100
AcDbMText
 10
91.347640939419
 20
122.02526449646
 30
0.0
 40
4.0
 41
0.0
 71
     7
 72
     1
  1
\A1;現地結合部
 73
     1
 44
1.0
  0
LINE
  5
1E1
330
18
100
AcDbEntity
  8
LEVEL001
  6
Continuous
 62
     1
370
    15
100
AcDbLine
 10
77.291331405394
 20
66.622607887571
 30
0.0
 11
48.848241606582
 21
66.622607887571
 31
0.0
  0
LINE
  5
1E2
330
18
100
AcDbEntity
  8
LEVEL001
  6
Continuous
 62
     1
370
    15
100
AcDbLine
 10
77.291331405394
 20
97.560107887572
 30
0.0
 11
48.848241606582
 21
97.560107887572
 31
0.0
  0
LINE
  5
1E3
330
18
100
AcDbEntity
  8
LEVEL001
  6
Continuous
 62
     1
370
    15
100
AcDbLine
 10
50.848241606582
 20
66.622607887571
 30
0.0
 11
50.848241606582
 21
82.091357887571
 31
0.0
  0
LINE
  5
1E4
330
18
100
AcDbEntity
  8
LEVEL001
  6
Continuous
 62
     1
370
    15
100
AcDbLine
 10
50.848241606582
 20
97.560107887572
 30
0.0
 11
50.848241606582
 21
82.091357887571
 31
0.0
  0
LINE
  5
1E5
330
18
100
AcDbEntity
  8
LEVEL001
  6
Continuous
 62
     1
370
    15
100
AcDbLine
 10
50.848241606582
 20
66.622607887571
 30
0.0
 11
51.652089183876
 21
69.622607887571
 31
0.0
  0
LINE
  5
1E6
330
18
100
AcDbEntity
  8
LEVEL001
  6
Continuous
 62
     1
370
    15
100
AcDbLine
 10
50.848241606582
 20
66.622607887571
 30
0.0
 11
50.044394029289
 21
69.622607887571
 31
0.0
  0
LINE
  5
1E7
330
18
100
AcDbEntity
  8
LEVEL001
  6
Continuous
 62
     1
370
    15
100
AcDbLine
 10
50.848241606582
 20
97.560107887572
 30
0.0
 11
50.044394029289
 21
94.560107887572
 31
0.0
  0
LINE
  5
1E8
330
18
100
AcDbEntity
  8
LEVEL001
  6
Continuous
 62
     1
370
    15
100
AcDbLine
 10
50.848241606582
 20
97.560107887572
 30
0.0
 11
51.652089183876
 21
94.560107887572
 31
0.0
  0
MTEXT
  5
1E9
330
18
100
AcDbEntity
  8
LEVEL001
 62
     3
370
    20
100
AcDbMText
 10
49.133955892297
 20
82.091357887571
 30
0.0
 40
4.0
 41
0.0
 71
     8
 72
     1
  1
\A1;(2475)
 11
0.0
 21
1.0
 31
0.0
 73
     1
 44
1.0
  0
LINE
  5
1EA
330
18
100
AcDbEntity
  8
LEVEL001
  6
Continuous
 62
     1
370
    15
100
AcDbLine
 10
77.291331405394
 20
66.622607887571
 30
0.0
 11
23.037891838301
 21
66.622607887571
 31
0.0
  0
LINE
  5
1EB
330
18
100
AcDbEntity
  8
LEVEL001
  6
Continuous
 62
     1
370
    15
100
AcDbLine
 10
78.072581405394
 20
266.62260788758
 30
0.0
 11
23.037891838301
 21
266.62260788758
 31
0.0
  0
LINE
  5
1EC
330
18
100
AcDbEntity
  8
LEVEL001
  6
Continuous
 62
     1
370
    15
100
AcDbLine
 10
25.037891838301
 20
66.622607887571
 30
0.0
 11
25.037891838301
 21
166.62260788757
 31
0.0
  0
LINE
  5
1ED
330
18
100
AcDbEntity
  8
LEVEL001
  6
Continuous
 62
     1
370
    15
100
AcDbLine
 10
25.037891838301
 20
266.62260788758
 30
0.0
 11
25.037891838301
 21
166.62260788757
 31
0.0
  0
LINE
  5
1EE
330
18
100
AcDbEntity
  8
LEVEL001
  6
Continuous
 62
     1
370
    15
100
AcDbLine
 10
25.037891838301
 20
66.622607887571
 30
0.0
 11
25.841739415594
 21
69.622607887571
 31
0.0
  0
LINE
  5
1EF
330
18
100
AcDbEntity
  8
LEVEL001
  6
Continuous
 62
     1
370
    15
100
AcDbLine
 10
25.037891838301
 20
66.622607887571
 30
0.0
 11
24.234044261008
 21
69.622607887571
 31
0.0
  0
LINE
  5
1F0
330
18
100
AcDbEntity
  8
LEVEL001
  6
Continuous
 62
     1
370
    15
100
AcDbLine
 10
25.037891838301
 20
266.62260788758
 30
0.0
 11
24.234044261008
 21
263.62260788758
 31
0.0
  0
LINE
  5
1F1
330
18
100
AcDbEntity
  8
LEVEL001
  6
Continuous
 62
     1
370
    15
100
AcDbLine
 10
25.037891838301
 20
266.62260788758
 30
0.0
 11
25.841739415594
 21
263.62260788758
 31
0.0
  0
MTEXT
  5
1F2
330
18
100
AcDbEntity
  8
LEVEL001
 62
     3
370
    20
100
AcDbMText
 10
23.323606124015
 20
166.62260788757
 30
0.0
 40
4.0
 41
0.0
 71
     8
 72
     1
  1
\A1;16000
 11
0.0
 21
1.0
 31
0.0
 73
     1
 44
1.0
  0
LINE
  5
1F3
330
18
100
AcDbEntity
  8
LEVEL001
  6
Continuous
 62
     1
370
    15
100
AcDbLine
 10
77.291331405394
 20
66.622607887571
 30
0.0
 11
38.220450525525
 21
66.622607887571
 31
0.0
  0
LINE
  5
1F4
330
18
100
AcDbEntity
  8
LEVEL001
  6
Continuous
 62
     1
370
    15
100
AcDbLine
 10
77.510081405394
 20
129.12260788757
 30
0.0
 11
38.220450525525
 21
129.12260788757
 31
0.0
  0
LINE
  5
1F5
330
18
100
AcDbEntity
  8
LEVEL001
  6
Continuous
 62
     1
370
    15
100
AcDbLine
 10
40.220450525525
 20
66.622607887571
 30
0.0
 11
40.220450525525
 21
97.872607887571
 31
0.0
  0
LINE
  5
1F6
330
18
100
AcDbEntity
  8
LEVEL001
  6
Continuous
 62
     1
370
    15
100
AcDbLine
 10
40.220450525525
 20
129.12260788757
 30
0.0
 11
40.220450525525
 21
97.872607887571
 31
0.0
  0
LINE
  5
1F7
330
18
100
AcDbEntity
  8
LEVEL001
  6
Continuous
 62
     1
370
    15
100
AcDbLine
 10
40.220450525525
 20
66.622607887571
 30
0.0
 11
41.024298102819
 21
69.622607887571
 31
0.0
  0
LINE
  5
1F8
330
18
100
AcDbEntity
  8
LEVEL001
  6
Continuous
 62
     1
370
    15
100
AcDbLine
 10
40.220450525525
 20
66.622607887571
 30
0.0
 11
39.416602948232
 21
69.622607887571
 31
0.0
  0
LINE
  5
1F9
330
18
100
AcDbEntity
  8
LEVEL001
  6
Continuous
 62
     1
370
    15
100
AcDbLine
 10
40.220450525525
 20
129.12260788757
 30
0.0
 11
39.416602948232
 21
126.12260788757
 31
0.0
  0
LINE
  5
1FA
330
18
100
AcDbEntity
  8
LEVEL001
  6
Continuous
 62
     1
370
    15
100
AcDbLine
 10
40.220450525525
 20
129.12260788757
 30
0.0
 11
41.024298102819
 21
126.12260788757
 31
0.0
  0
MTEXT
  5
1FB
330
18
100
AcDbEntity
  8
LEVEL001
 62
     3
370
    20
100
AcDbMText
 10
38.50616481124
 20
97.872607887571
 30
0.0
 40
4.0
 41
0.0
 71
     8
 72
     1
  1
\A1;(5000)
 11
0.0
 21
1.0
 31
0.0
 73
     1
 44
1.0
  0
LINE
  5
1FC
330
18
100
AcDbEntity
  8
LEVEL001
  6
Continuous
 62
     1
370
    15
100
AcDbLine
 10
76.728831405394
 20
80.997607887572
 30
0.0
 11
58.476971581186
 21
80.997607887572
 31
0.0
  0
LINE
  5
1FD
330
18
100
AcDbEntity
  8
LEVEL001
  6
Continuous
 62
     1
370
    15
100
AcDbLine
 10
77.291331405394
 20
66.622607887571
 30
0.0
 11
58.476971581186
 21
66.622607887571
 31
0.0
  0
LINE
  5
1FE
330
18
100
AcDbEntity
  8
LEVEL001
  6
Continuous
 62
     1
370
    15
100
AcDbLine
 10
60.476971581186
 20
80.997607887572
 30
0.0
 11
60.476971581186
 21
73.810107887571
 31
0.0
  0
LINE
  5
1FF
330
18
100
AcDbEntity
  8
LEVEL001
  6
Continuous
 62
     1
370
    15
100
AcDbLine
 10
60.476971581186
 20
66.622607887571
 30
0.0
 11
60.476971581186
 21
73.810107887571
 31
0.0
  0
LINE
  5
200
330
18
100
AcDbEntity
  8
LEVEL001
  6
Continuous
 62
     1
370
    15
100
AcDbLine
 10
60.476971581186
 20
80.997607887572
 30
0.0
 11
59.673124003893
 21
77.997607887572
 31
0.0
  0
LINE
  5
201
330
18
100
AcDbEntity
  8
LEVEL001
  6
Continuous
 62
     1
370
    15
100
AcDbLine
 10
60.476971581186
 20
80.997607887572
 30
0.0
 11
61.280819158479
 21
77.997607887572
 31
0.0
  0
LINE
  5
202
330
18
100
AcDbEntity
  8
LEVEL001
  6
Continuous
 62
     1
370
    15
100
AcDbLine
 10
60.476971581186
 20
66.622607887571
 30
0.0
 11
61.280819158479
 21
69.622607887571
 31
0.0
  0
LINE
  5
203
330
18
100
AcDbEntity
  8
LEVEL001
  6
Continuous
 62
     1
370
    15
100
AcDbLine
 10
60.476971581186
 20
66.622607887571
 30
0.0
 11
59.673124003893
 21
69.622607887571
 31
0.0
  0
MTEXT
  5
204
330
18
100
AcDbEntity
  8
LEVEL001
 62
     3
370
    20
100
AcDbMText
 10
58.7626858669
 20
73.810107887571
 30
0.0
 40
4.0
 41
0.0
 71
     8
 72
     1
  1
\A1;1150
 11
0.0
 21
1.0
 31
0.0
 73
     1
 44
1.0
  0
LINE
  5
205
330
18
100
AcDbEntity
  8
LEVEL001
  6
Continuous
 62
     1
370
    15
100
AcDbLine
 10
71.666331405394
 20
47.872607887572
 30
0.0
 11
23.037891838301
 21
47.872607887572
 31
0.0
  0
LINE
  5
206
330
18
100
AcDbEntity
  8
LEVEL001
  6
Continuous
 62
     1
370
    15
100
AcDbLine
 10
72.916331405393
 20
66.622607887572
 30
0.0
 11
23.037891838301
 21
66.622607887572
 31
0.0
  0
LINE
  5
207
330
18
100
AcDbEntity
  8
LEVEL001
  6
Continuous
 62
     1
370
    15
100
AcDbLine
 10
25.037891838301
 20
47.872607887572
 30
0.0
 11
25.037891838301
 21
57.247607887572
 31
0.0
  0
LINE
  5
208
330
18
100
AcDbEntity
  8
LEVEL001
  6
Continuous
 62
     1
370
    15
100
AcDbLine
 10
25.037891838301
 20
66.622607887572
 30
0.0
 11
25.037891838301
 21
57.247607887572
 31
0.0
  0
LINE
  5
209
330
18
100
AcDbEntity
  8
LEVEL001
  6
Continuous
 62
     1
370
    15
100
AcDbLine
 10
25.037891838301
 20
47.872607887572
 30
0.0
 11
25.841739415594
 21
50.872607887572
 31
0.0
  0
LINE
  5
20A
330
18
100
AcDbEntity
  8
LEVEL001
  6
Continuous
 62
     1
370
    15
100
AcDbLine
 10
25.037891838301
 20
47.872607887572
 30
0.0
 11
24.234044261008
 21
50.872607887572
 31
0.0
  0
LINE
  5
20B
330
18
100
AcDbEntity
  8
LEVEL001
  6
Continuous
 62
     1
370
    15
100
AcDbLine
 10
25.037891838301
 20
66.622607887572
 30
0.0
 11
24.234044261008
 21
63.622607887572
 31
0.0
  0
LINE
  5
20C
330
18
100
AcDbEntity
  8
LEVEL001
  6
Continuous
 62
     1
370
    15
100
AcDbLine
 10
25.037891838301
 20
66.622607887572
 30
0.0
 11
25.841739415594
 21
63.622607887572
 31
0.0
  0
MTEXT
  5
20D
330
18
100
AcDbEntity
  8
LEVEL001
 62
     3
370
    20
100
AcDbMText
 10
23.323606124015
 20
57.247607887572
 30
0.0
 40
4.0
 41
0.0
 71
     8
 72
     1
  1
\A1;1500
 11
0.0
 21
1.0
 31
0.0
 73
     1
 44
1.0
  0
LINE
  5
20E
330
18
100
AcDbEntity
  8
LEVEL001
  6
Continuous
 62
     1
370
    15
100
AcDbLine
 10
80.924294967767
 20
130.53682144994
 30
0.0
 11
89.681232931493
 21
139.29375941367
 31
0.0
  0
LINE
  5
20F
330
18
100
AcDbEntity
  8
LEVEL001
  6
Continuous
 62
     1
370
    15
100
AcDbLine
 10
82.986794967767
 20
130.53682144994
 30
0.0
 11
91.743732931493
 21
139.29375941367
 31
0.0
  0
LINE
  5
210
330
18
100
AcDbEntity
  8
LEVEL001
  6
Continuous
 62
     1
370
    15
100
AcDbLine
 10
84.51701936912
 20
137.8795458513
 30
0.0
 11
89.29826936912
 21
137.8795458513
 31
0.0
  0
LINE
  5
211
330
18
100
AcDbEntity
  8
LEVEL001
  6
Continuous
 62
     1
370
    15
100
AcDbLine
 10
107.39088546151
 20
137.8795458513
 30
0.0
 11
89.29826936912
 21
137.8795458513
 31
0.0
  0
LINE
  5
212
330
18
100
AcDbEntity
  8
LEVEL001
  6
Continuous
 62
     1
370
    15
100
AcDbLine
 10
88.26701936912
 20
137.8795458513
 30
0.0
 11
85.26701936912
 21
138.68339342859
 31
0.0
  0
LINE
  5
213
330
18
100
AcDbEntity
  8
LEVEL001
  6
Continuous
 62
     1
370
    15
100
AcDbLine
 10
88.26701936912
 20
137.8795458513
 30
0.0
 11
85.26701936912
 21
137.075698274
 31
0.0
  0
LINE
  5
214
330
18
100
AcDbEntity
  8
LEVEL001
  6
Continuous
 62
     1
370
    15
100
AcDbLine
 10
90.32951936912
 20
137.8795458513
 30
0.0
 11
93.32951936912
 21
137.075698274
 31
0.0
  0
LINE
  5
215
330
18
100
AcDbEntity
  8
LEVEL001
  6
Continuous
 62
     1
370
    15
100
AcDbLine
 10
90.32951936912
 20
137.8795458513
 30
0.0
 11
93.32951936912
 21
138.68339342859
 31
0.0
  0
MTEXT
  5
216
330
18
100
AcDbEntity
  8
LEVEL001
 62
     3
370
    20
100
AcDbMText
 10
93.390885461506
 20
139.59383156558
 30
0.0
 40
4.0
 41
0.0
 71
     7
 72
     1
  1
\A1;%%c165
 73
     1
 44
1.0
  0
LWPOLYLINE
  5
217
330
18
100
AcDbEntity
  8
LEVEL001
  6
DOT
 62
     1
370
    15
100
AcDbPolyline
 90
        4
 70
     0
 43
0.0
 10
79.560081405394
 20
129.12260788757
 10
79.560081405394
 20
132.24760788757
 10
81.522581405394
 20
132.24760788757
 10
81.522581405394
 20
129.12260788757
  0
LWPOLYLINE
  5
218
330
18
100
AcDbEntity
  8
LEVEL001
  6
DOT
 62
     1
370
    15
100
AcDbPolyline
 90
        4
 70
     0
 43
0.0
 10
79.828831405394
 20
191.62260788757
 10
79.828831405394
 20
194.12260788757
 10
81.253831405393
 20
194.12260788757
 10
81.253831405393
 20
191.62260788757
  0
LINE
  5
219
330
18
100
AcDbEntity
  8
LEVEL001
  6
Continuous
 62
     3
370
    20
100
AcDbLine
 10
79.938206405394
 20
266.77275226711
 30
0.0
 11
79.938206405394
 21
265.90385788757
 31
0.0
  0
LINE
  5
21A
330
18
100
AcDbEntity
  8
LEVEL001
  6
Continuous
 62
     3
370
    20
100
AcDbLine
 10
80.038206405394
 20
266.75192845669
 30
0.0
 11
80.038206405394
 21
265.90385788757
 31
0.0
  0
LINE
  5
21B
330
18
100
AcDbEntity
  8
LEVEL001
  6
Continuous
 62
     3
370
    20
100
AcDbLine
 10
79.619456405394
 20
267.00222822781
 30
0.0
 11
79.619456405394
 21
265.90385788757
 31
0.0
  0
LINE
  5
21C
330
18
100
AcDbEntity
  8
LEVEL001
  6
Continuous
 62
     3
370
    20
100
AcDbLine
 10
79.719456405394
 20
266.89218269133
 30
0.0
 11
79.719456405394
 21
265.90385788757
 31
0.0
  0
ARC
  5
21D
330
18
100
AcDbEntity
  8
LEVEL001
  6
Continuous
 62
     3
370
    20
100
AcDbCircle
 10
79.644456405394
 20
265.94715915776
 30
0.0
 40
0.05
100
AcDbArc
 50
239.99999999996
 51
300.00000000004
  0
ARC
  5
21E
330
18
100
AcDbEntity
  8
LEVEL001
  6
Continuous
 62
     3
370
    20
100
AcDbCircle
 10
79.694456405394
 20
265.94715915776
 30
0.0
 40
0.050000000000006
100
AcDbArc
 50
240.00000000004
 51
299.99999999996
  0
ARC
  5
21F
330
18
100
AcDbEntity
  8
LEVEL001
  6
Continuous
 62
     3
370
    20
100
AcDbCircle
 10
79.694456405394
 20
265.86055661738
 30
0.0
 40
0.050000000000006
100
AcDbArc
 50
60.000000000038
 51
119.99999999996
  0
ARC
  5
220
330
18
100
AcDbEntity
  8
LEVEL001
  6
Continuous
 62
     3
370
    20
100
AcDbCircle
 10
79.963206405394
 20
265.94715915776
 30
0.0
 40
0.05
100
AcDbArc
 50
239.99999999999
 51
300.00000000002
  0
ARC
  5
221
330
18
100
AcDbEntity
  8
LEVEL001
  6
Continuous
 62
     3
370
    20
100
AcDbCircle
 10
80.013206405394
 20
265.94715915776
 30
0.0
 40
0.050000000000006
100
AcDbArc
 50
240.00000000004
 51
299.99999999997
  0
ARC
  5
222
330
18
100
AcDbEntity
  8
LEVEL001
  6
Continuous
 62
     3
370
    20
100
AcDbCircle
 10
80.013206405394
 20
265.86055661738
 30
0.0
 40
0.050000000000006
100
AcDbArc
 50
60.00000000002701
 51
119.99999999996
  0
ARC
  5
223
330
18
100
AcDbEntity
  8
LEVEL001
  6
Continuous
 62
     3
370
    20
100
AcDbCircle
 10
80.972581405394
 20
267.34760788757
 30
0.0
 40
0.6
100
AcDbArc
 50
269.99999999999
 51
0.0
  0
LINE
  5
224
330
18
100
AcDbEntity
  8
LEVEL001
  6
Continuous
 62
     3
370
    20
100
AcDbLine
 10
81.572581405394
 20
267.34760788757
 30
0.0
 11
81.552581405394
 21
267.34760788757
 31
0.0
  0
LINE
  5
225
330
18
100
AcDbEntity
  8
LEVEL001
  6
Continuous
 62
     3
370
    20
100
AcDbLine
 10
81.552581405394
 20
267.34760788757
 30
0.0
 11
80.541331405394
 21
267.34760788757
 31
0.0
  0
LINE
  5
226
330
18
100
AcDbEntity
  8
LEVEL001
  6
Continuous
 62
     3
370
    20
100
AcDbLine
 10
80.972581405394
 20
266.74760788757
 30
0.0
 11
80.541331405394
 21
266.74760788757
 31
0.0
  0
ARC
  5
227
330
18
100
AcDbEntity
  8
LEVEL001
  6
Continuous
 62
     3
370
    20
100
AcDbCircle
 10
80.110081405394
 20
267.34760788757
 30
0.0
 40
0.6
100
AcDbArc
 50
180.0
 51
270.0
  0
LINE
  5
228
330
18
100
AcDbEntity
  8
LEVEL001
  6
Continuous
 62
     3
370
    20
100
AcDbLine
 10
79.510081405394
 20
267.34760788757
 30
0.0
 11
79.530081405394
 21
267.34760788757
 31
0.0
  0
LINE
  5
229
330
18
100
AcDbEntity
  8
LEVEL001
  6
Continuous
 62
     3
370
    20
100
AcDbLine
 10
79.530081405394
 20
267.34760788757
 30
0.0
 11
80.541331405394
 21
267.34760788757
 31
0.0
  0
LINE
  5
22A
330
18
100
AcDbEntity
  8
LEVEL001
  6
Continuous
 62
     3
370
    20
100
AcDbLine
 10
80.110081405394
 20
266.74760788757
 30
0.0
 11
80.541331405394
 21
266.74760788757
 31
0.0
  0
CIRCLE
  5
22B
330
18
100
AcDbEntity
  8
LEVEL001
  6
Continuous
 62
     3
370
    20
100
AcDbCircle
 10
80.541331405394
 20
267.44149842946
 30
0.0
 40
0.03125
  0
LINE
  5
22C
330
18
100
AcDbEntity
  8
LEVEL001
  6
Continuous
 62
     3
370
    20
100
AcDbLine
 10
79.510081405394
 20
267.34760788757
 30
0.0
 11
81.572581405394
 21
267.34760788757
 31
0.0
  0
LINE
  5
22D
330
18
100
AcDbEntity
  8
LEVEL001
  6
Continuous
 62
     3
370
    20
100
AcDbLine
 10
81.572581405394
 20
267.34760788757
 30
0.0
 11
81.568276413739
 21
267.58319281362
 31
0.0
  0
ARC
  5
22E
330
18
100
AcDbEntity
  8
LEVEL001
  6
Continuous
 62
     3
370
    20
100
AcDbCircle
 10
81.31831814398
 20
267.57862516881
 30
0.0
 40
0.25
100
AcDbArc
 50
1.0468853297928
 51
11.796205268342
  0
LINE
  5
22F
330
18
100
AcDbEntity
  8
LEVEL001
  6
Continuous
 62
     3
370
    20
100
AcDbLine
 10
79.510081405394
 20
267.34760788757
 30
0.0
 11
79.514386397047
 21
267.58319281362
 31
0.0
  0
ARC
  5
230
330
18
100
AcDbEntity
  8
LEVEL001
  6
Continuous
 62
     3
370
    20
100
AcDbCircle
 10
79.764344666806
 20
267.57862516881
 30
0.0
 40
0.25
100
AcDbArc
 50
168.20379473184
 51
178.95311467031
  0
ARC
  5
231
330
18
100
AcDbEntity
  8
LEVEL001
  6
Continuous
 62
     3
370
    20
100
AcDbCircle
 10
80.541331405394
 20
267.41635788757
 30
0.0
 40
1.04375
100
AcDbArc
 50
11.796205268403
 51
168.20379473184
  0
LWPOLYLINE
  5
232
330
18
100
AcDbEntity
  8
LEVEL001
  6
Continuous
 62
     3
370
    20
100
AcDbPolyline
 90
        4
 70
     1
 43
0.0
 10
80.078831405394
 20
266.74760788757
 10
80.078831405394
 20
266.62260788757
 10
81.003831405394
 20
266.62260788757
 10
81.003831405394
 20
266.74760788757
  0
POINT
  5
233
330
18
100
AcDbEntity
  8
LEVEL001
 62
     3
100
AcDbPoint
 10
80.541331405394
 20
266.62260788757
 30
0.0
  0
LINE
  5
234
330
18
100
AcDbEntity
  8
LEVEL001
  6
Continuous
 62
     3
370
    20
100
AcDbLine
 10
79.000706405394
 20
81.060107887572
 30
0.0
 11
79.081956405394
 21
81.060107887572
 31
0.0
  0
LINE
  5
235
330
18
100
AcDbEntity
  8
LEVEL001
  6
Continuous
 62
     3
370
    20
100
AcDbLine
 10
78.980265327717
 20
81.400792515518
 30
0.0
 11
79.000706405394
 21
81.060107887572
 31
0.0
  0
LINE
  5
236
330
18
100
AcDbEntity
  8
LEVEL001
  6
Continuous
 62
     3
370
    20
100
AcDbLine
 10
79.222581405394
 20
81.397607887572
 30
0.0
 11
79.222581405393
 21
80.997607887572
 31
0.0
  0
LINE
  5
237
330
18
100
AcDbEntity
  8
LEVEL001
  6
Continuous
 62
     3
370
    20
100
AcDbLine
 10
79.222581405393
 20
80.597607887572
 30
0.0
 11
79.222581405393
 21
80.997607887572
 31
0.0
  0
LINE
  5
238
330
18
100
AcDbEntity
  8
LEVEL001
  6
Continuous
 62
     3
370
    20
100
AcDbLine
 10
79.291331405394
 20
81.747607887572
 30
0.0
 11
79.222581405394
 21
81.397607887572
 31
0.0
  0
LINE
  5
239
330
18
100
AcDbEntity
  8
LEVEL001
  6
Continuous
 62
     3
370
    20
100
AcDbLine
 10
79.291331405394
 20
80.247607887572
 30
0.0
 11
79.222581405393
 21
80.597607887572
 31
0.0
  0
ARC
  5
23A
330
18
100
AcDbEntity
  8
LEVEL001
  6
Continuous
 62
     3
370
    20
100
AcDbCircle
 10
79.168235673515
 20
81.650439063863
 30
0.0
 40
0.3125
100
AcDbArc
 50
180.0
 51
233.02223081456
  0
LINE
  5
23B
330
18
100
AcDbEntity
  8
LEVEL001
  6
HIDDEN
 62
     1
370
    15
100
AcDbLine
 10
79.260035899169
 20
79.970732887572
 30
0.0
 11
79.291331405393
 21
79.970732887572
 31
0.0
  0
LINE
  5
23C
330
18
100
AcDbEntity
  8
LEVEL001
  6
HIDDEN
 62
     1
370
    15
100
AcDbLine
 10
79.260035899169
 20
79.970732887572
 30
0.0
 11
79.260035899169
 21
79.941357887572
 31
0.0
  0
LINE
  5
23D
330
18
100
AcDbEntity
  8
LEVEL001
  6
HIDDEN
 62
     1
370
    15
100
AcDbLine
 10
79.260035899169
 20
80.078857887572
 30
0.0
 11
79.260035899169
 21
80.049482887572
 31
0.0
  0
LINE
  5
23E
330
18
100
AcDbEntity
  8
LEVEL001
  6
HIDDEN
 62
     1
370
    15
100
AcDbLine
 10
79.260035899169
 20
80.049482887572
 30
0.0
 11
79.291331405393
 21
80.049482887572
 31
0.0
  0
LINE
  5
23F
330
18
100
AcDbEntity
  8
LEVEL001
  6
Continuous
 62
     3
370
    20
100
AcDbLine
 10
78.853977600598
 20
81.871599564455
 30
0.0
 11
78.855735673515
 21
81.650439063863
 31
0.0
  0
LINE
  5
240
330
18
100
AcDbEntity
  8
LEVEL001
  6
DOT
 62
     1
370
    15
100
AcDbLine
 10
79.247535899169
 20
79.944482887572
 30
0.0
 11
79.260035899169
 21
79.944482887572
 31
0.0
  0
LINE
  5
241
330
18
100
AcDbEntity
  8
LEVEL001
  6
DOT
 62
     1
370
    15
100
AcDbLine
 10
79.260035899169
 20
80.075732887572
 30
0.0
 11
79.260035899169
 21
79.944482887572
 31
0.0
  0
LINE
  5
242
330
18
100
AcDbEntity
  8
LEVEL001
  6
DOT
 62
     1
370
    15
100
AcDbLine
 10
79.247535899169
 20
80.075732887572
 30
0.0
 11
79.260035899169
 21
80.075732887572
 31
0.0
  0
LINE
  5
243
330
18
100
AcDbEntity
  8
LEVEL001
  6
Continuous
 62
     3
370
    20
100
AcDbLine
 10
79.210035899169
 20
79.981982887572
 30
0.0
 11
79.210035899169
 21
80.038232887572
 31
0.0
  0
LINE
  5
244
330
18
100
AcDbEntity
  8
LEVEL001
  6
Continuous
 62
     3
370
    20
100
AcDbLine
 10
79.291331405393
 20
79.866357887572
 30
0.0
 11
79.291331405394
 21
80.247607887572
 31
0.0
  0
ARC
  5
245
330
18
100
AcDbEntity
  8
LEVEL001
  6
Continuous
 62
     3
370
    20
100
AcDbCircle
 10
79.598299270593
 20
80.212122707969
 30
0.0
 40
0.75
100
AcDbArc
 50
142.92793628941
 51
187.12650048794
  0
LINE
  5
246
330
18
100
AcDbEntity
  8
LEVEL001
  6
HIDDEN
 62
     1
370
    15
100
AcDbLine
 10
79.260035899169
 20
82.024482887572
 30
0.0
 11
79.291331405393
 21
82.024482887572
 31
0.0
  0
LINE
  5
247
330
18
100
AcDbEntity
  8
LEVEL001
  6
HIDDEN
 62
     1
370
    15
100
AcDbLine
 10
79.260035899169
 20
82.024482887572
 30
0.0
 11
79.260035899169
 21
82.053857887572
 31
0.0
  0
LINE
  5
248
330
18
100
AcDbEntity
  8
LEVEL001
  6
HIDDEN
 62
     1
370
    15
100
AcDbLine
 10
79.260035899169
 20
81.916357887572
 30
0.0
 11
79.260035899169
 21
81.945732887572
 31
0.0
  0
LINE
  5
249
330
18
100
AcDbEntity
  8
LEVEL001
  6
HIDDEN
 62
     1
370
    15
100
AcDbLine
 10
79.260035899169
 20
81.945732887572
 30
0.0
 11
79.291331405393
 21
81.945732887572
 31
0.0
  0
LINE
  5
24A
330
18
100
AcDbEntity
  8
LEVEL001
  6
DOT
 62
     1
370
    15
100
AcDbLine
 10
79.247535899169
 20
82.050732887572
 30
0.0
 11
79.260035899169
 21
82.050732887572
 31
0.0
  0
LINE
  5
24B
330
18
100
AcDbEntity
  8
LEVEL001
  6
DOT
 62
     1
370
    15
100
AcDbLine
 10
79.260035899169
 20
81.919482887572
 30
0.0
 11
79.260035899169
 21
82.050732887572
 31
0.0
  0
LINE
  5
24C
330
18
100
AcDbEntity
  8
LEVEL001
  6
DOT
 62
     1
370
    15
100
AcDbLine
 10
79.247535899169
 20
81.919482887572
 30
0.0
 11
79.260035899169
 21
81.919482887572
 31
0.0
  0
LINE
  5
24D
330
18
100
AcDbEntity
  8
LEVEL001
  6
Continuous
 62
     3
370
    20
100
AcDbLine
 10
79.210035899169
 20
82.013232887572
 30
0.0
 11
79.210035899169
 21
81.956982887572
 31
0.0
  0
LINE
  5
24E
330
18
100
AcDbEntity
  8
LEVEL001
  6
Continuous
 62
     3
370
    20
100
AcDbLine
 10
79.291331405394
 20
82.128857887572
 30
0.0
 11
79.291331405394
 21
81.747607887572
 31
0.0
  0
LWPOLYLINE
  5
24F
330
18
100
AcDbEntity
  8
LEVEL001
  6
Continuous
 62
     3
370
    20
100
AcDbPolyline
 90
       65
 70
     0
 43
0.0
 10
78.80083659449
 20
81.81200326823
 10
78.799579937553
 20
81.783538809498
 10
78.79832756669
 20
81.75509793306
 10
78.797083767973
 20
81.726704221206
 10
78.795852827474
 20
81.698381256231
 10
78.794639031268
 20
81.670152620426
 10
78.793446665427
 20
81.642041896085
 10
78.792280016024
 20
81.614072665501
 10
78.791143369133
 20
81.586268510965
 10
78.790041010826
 20
81.558653014771
 10
78.788977227177
 20
81.531249759212
 10
78.787956304258
 20
81.50408232658
 10
78.786982528143
 20
81.477174299167
 10
78.786060184904
 20
81.450549259268
 10
78.785193560616
 20
81.424230789173
 10
78.78438694135
 20
81.398242471177
 10
78.78364461318
 20
81.372607887572
 10
78.782969639577
 20
81.347342759885
 10
78.782360193602
 20
81.32243136659
 10
78.781813225714
 20
81.297850125393
 10
78.781325686372
 20
81.273575454002
 10
78.780894526035
 20
81.249583770122
 10
78.780516695161
 20
81.225851491463
 10
78.78018914421
 20
81.202355035732
 10
78.779908823641
 20
81.179070820634
 10
78.779672683912
 20
81.155975263879
 10
78.779477675483
 20
81.133044783172
 10
78.779320748812
 20
81.110255796222
 10
78.779198854358
 20
81.087584720736
 10
78.779108942581
 20
81.06500797442
 10
78.779047963939
 20
81.042501974983
 10
78.77901286889
 20
81.020043140131
 10
78.779000607895
 20
80.997607887572
 10
78.779009147264
 20
80.975172635012
 10
78.779040516716
 20
80.95271380016
 10
78.779097761821
 20
80.930207800723
 10
78.779183928151
 20
80.907631054407
 10
78.779302061276
 20
80.884959978921
 10
78.779455206768
 20
80.86217099197
 10
78.779646410197
 20
80.839240511264
 10
78.779878717134
 20
80.816144954508
 10
78.78015517315
 20
80.792860739411
 10
78.780478823816
 20
80.769364283679
 10
78.780852714703
 20
80.74563200502
 10
78.781279891382
 20
80.721640321141
 10
78.781763399423
 20
80.69736564975
 10
78.782306284397
 20
80.672784408553
 10
78.782911591876
 20
80.647873015257
 10
78.78358236743
 20
80.622607887572
 10
78.784320435351
 20
80.596973303966
 10
78.785122734816
 20
80.57098498597
 10
78.785984983721
 20
80.544666515876
 10
78.786902899963
 20
80.518041475977
 10
78.78787220144
 20
80.491133448565
 10
78.788888606049
 20
80.463966015933
 10
78.789947831686
 20
80.436562760374
 10
78.79104559625
 20
80.40894726418
 10
78.792177617637
 20
80.381143109645
 10
78.793339613743
 20
80.35317387906
 10
78.794527302468
 20
80.32506315472
 10
78.795736401706
 20
80.296834518915
 10
78.796962629356
 20
80.26851155394
 10
78.798201703315
 20
80.240117842087
 10
78.799449341479
 20
80.211676965648
 10
78.800701261747
 20
80.183212506916
  0
LWPOLYLINE
  5
250
330
18
100
AcDbEntity
  8
LEVEL001
  6
Continuous
 62
     3
370
    20
100
AcDbPolyline
 90
       65
 70
     0
 43
0.0
 10
78.850667391988
 20
81.81200326823
 10
78.849413108736
 20
81.783493217044
 10
78.848163055706
 20
81.755007820914
 10
78.84692146312
 20
81.726571734897
 10
78.845692561198
 20
81.698209614048
 10
78.844480580162
 20
81.669946113426
 10
78.843289750235
 20
81.641805888085
 10
78.842124301638
 20
81.613813593082
 10
78.840988464592
 20
81.585993883473
 10
78.839886469319
 20
81.558371414316
 10
78.838822546041
 20
81.530970840665
 10
78.83780092498
 20
81.503816817579
 10
78.836825836357
 20
81.476934000112
 10
78.835901510393
 20
81.450347043321
 10
78.835032177311
 20
81.424080602264
 10
78.834222067332
 20
81.398159331995
 10
78.833475410678
 20
81.372607887572
 10
78.83279527082
 20
81.347441990522
 10
78.832180044224
 20
81.322641628264
 10
78.831626960607
 20
81.298177854685
 10
78.831133249684
 20
81.274021723676
 10
78.830696141172
 20
81.250144289124
 10
78.830312864786
 20
81.22651660492
 10
78.829980650242
 20
81.203109724952
 10
78.829696727257
 20
81.17989470311
 10
78.829458325546
 20
81.156842593282
 10
78.829262674826
 20
81.133924449357
 10
78.829107004812
 20
81.111111325225
 10
78.82898854522
 20
81.088374274775
 10
78.828904525766
 20
81.065684351895
 10
78.828852176166
 20
81.043012610475
 10
78.828828726137
 20
81.020330104405
 10
78.828831405394
 20
80.997607887572
 10
78.828858236099
 20
80.97482130492
 10
78.8289104102
 20
80.951962865612
 10
78.828989912092
 20
80.929029369864
 10
78.829098726168
 20
80.906017617893
 10
78.829238836822
 20
80.882924409914
 10
78.82941222845
 20
80.859746546144
 10
78.829620885444
 20
80.8364808268
 10
78.829866792199
 20
80.813124052098
 10
78.830151933109
 20
80.789673022255
 10
78.830478292568
 20
80.766124537487
 10
78.830847854971
 20
80.74247539801
 10
78.831262604711
 20
80.718722404041
 10
78.831724526183
 20
80.694862355796
 10
78.83223560378
 20
80.670892053492
 10
78.832797821897
 20
80.646808297345
 10
78.833413164928
 20
80.622607887572
 10
78.83408271248
 20
80.598289406159
 10
78.834803925008
 20
80.573858562174
 10
78.83557335818
 20
80.549322846455
 10
78.836387567665
 20
80.524689749841
 10
78.837243109132
 20
80.49996676317
 10
78.838136538247
 20
80.475161377279
 10
78.83906441068
 20
80.450281083007
 10
78.840023282099
 20
80.425333371191
 10
78.841009708173
 20
80.400325732671
 10
78.842020244568
 20
80.375265658284
 10
78.843051446954
 20
80.350160638868
 10
78.844099870998
 20
80.325018165262
 10
78.84516207237
 20
80.299845728303
 10
78.846234606737
 20
80.27465081883
 10
78.847314029767
 20
80.24944092768
 10
78.84839689713
 20
80.224223545693
  0
POINT
  5
251
330
18
100
AcDbEntity
  8
LEVEL001
 62
     2
100
AcDbPoint
 10
79.291331405394
 20
80.997607887572
 30
0.0
  0
ARC
  5
252
330
18
100
AcDbEntity
  8
LEVEL001
  6
Continuous
 62
     3
370
    20
100
AcDbCircle
 10
78.829146803099
 20
80.120712506914
 30
0.0
 40
0.025
100
AcDbArc
 50
189.81802439664
 51
356.24988759841
  0
ARC
  5
253
330
18
100
AcDbEntity
  8
LEVEL001
  6
Continuous
 62
     3
370
    20
100
AcDbCircle
 10
78.8291468031
 20
81.874503268229
 30
0.0
 40
0.025
100
AcDbArc
 50
353.3301469403
 51
170.18197560333
  0
LWPOLYLINE
  5
254
330
18
100
AcDbEntity
  8
LEVEL001
  6
Continuous
 62
     3
370
    20
100
AcDbPolyline
 90
      161
 70
     0
 43
0.0
 10
78.804512945491
 20
81.878766255363
 10
78.803336182061
 20
81.871508691908
 10
78.802157115525
 20
81.864229014699
 10
78.800973442779
 20
81.856905109983
 10
78.799782860719
 20
81.849514864005
 10
78.798583066238
 20
81.842036163013
 10
78.797371756234
 20
81.834446893252
 10
78.7961466276
 20
81.826724940969
 10
78.794905377232
 20
81.81884819241
 10
78.793645702025
 20
81.810794533822
 10
78.792365298874
 20
81.802541851451
 10
78.791061864674
 20
81.794068031543
 10
78.789733096322
 20
81.785350960345
 10
78.788376690711
 20
81.776368524102
 10
78.786990344736
 20
81.767098609062
 10
78.785571755294
 20
81.75751910147
 10
78.78411861928
 20
81.747607887573
 10
78.782629914574
 20
81.73735121209
 10
78.781109743005
 20
81.726768753629
 10
78.779563487385
 20
81.71588854927
 10
78.777996530528
 20
81.704738636094
 10
78.776414255249
 20
81.693347051181
 10
78.77482204436
 20
81.681741831613
 10
78.773225280675
 20
81.669951014469
 10
78.771629347007
 20
81.65800263683
 10
78.770039626171
 20
81.645924735778
 10
78.768461500979
 20
81.633745348391
 10
78.766900354245
 20
81.621492511751
 10
78.765361568784
 20
81.609194262938
 10
78.763850527407
 20
81.596878639033
 10
78.76237261293
 20
81.584573677117
 10
78.760933208164
 20
81.57230741427
 10
78.759537695925
 20
81.560107887572
 10
78.758190244245
 20
81.547997210777
 10
78.756890162034
 20
81.535973804331
 10
78.755635543422
 20
81.524030165354
 10
78.75442448254
 20
81.512158790965
 10
78.753255073516
 20
81.500352178283
 10
78.752125410481
 20
81.488602824428
 10
78.751033587565
 20
81.476903226518
 10
78.749977698897
 20
81.465245881673
 10
78.748955838608
 20
81.453623287013
 10
78.747966100827
 20
81.442027939656
 10
78.747006579684
 20
81.430452336722
 10
78.746075369309
 20
81.418888975331
 10
78.745170563832
 20
81.4073303526
 10
78.744290257383
 20
81.395768965651
 10
78.743432544091
 20
81.384197311602
 10
78.742595518087
 20
81.372607887572
 10
78.741777706317
 20
81.360994770234
 10
78.740979366993
 20
81.349358354478
 10
78.740201191142
 20
81.337700614744
 10
78.739443869793
 20
81.326023525477
 10
78.738708093974
 20
81.314329061117
 10
78.737994554713
 20
81.302619196107
 10
78.737303943038
 20
81.29089590489
 10
78.736636949978
 20
81.279161161907
 10
78.73599426656
 20
81.267416941602
 10
78.735376583813
 20
81.255665218415
 10
78.734784592765
 20
81.243907966791
 10
78.734218984444
 20
81.23214716117
 10
78.733680449877
 20
81.220384775995
 10
78.733169680094
 20
81.208622785709
 10
78.732687366122
 20
81.196863164754
 10
78.73223419899
 20
81.185107887572
 10
78.731810703717
 20
81.173358533716
 10
78.731416741293
 20
81.161615103188
 10
78.731052006696
 20
81.149877201097
 10
78.730716194909
 20
81.138144432557
 10
78.73040900091
 20
81.126416402678
 10
78.730130119681
 20
81.114692716573
 10
78.729879246201
 20
81.102972979351
 10
78.729656075452
 20
81.091256796126
 10
78.729460302414
 20
81.079543772009
 10
78.729291622066
 20
81.067833512111
 10
78.72914972939
 20
81.056125621544
 10
78.729034319366
 20
81.044419705418
 10
78.728945086974
 20
81.032715368847
 10
78.728881727194
 20
81.021012216941
 10
78.728843935007
 20
81.009309854812
 10
78.728831405394
 20
80.997607887572
 10
78.728843935007
 20
80.985905920331
 10
78.728881727194
 20
80.974203558202
 10
78.728945086973
 20
80.962500406296
 10
78.729034319365
 20
80.950796069725
 10
78.729149729389
 20
80.9390901536
 10
78.729291622066
 20
80.927382263032
 10
78.729460302413
 20
80.915672003134
 10
78.729656075451
 20
80.903958979017
 10
78.729879246201
 20
80.892242795792
 10
78.73013011968
 20
80.880523058571
 10
78.730409000909
 20
80.868799372465
 10
78.730716194908
 20
80.857071342586
 10
78.731052006696
 20
80.845338574046
 10
78.731416741292
 20
80.833600671956
 10
78.731810703717
 20
80.821857241427
 10
78.73223419899
 20
80.810107887572
 10
78.732687366122
 20
80.798352610389
 10
78.733169680094
 20
80.786592989434
 10
78.733680449877
 20
80.774830999148
 10
78.734218984444
 20
80.763068613973
 10
78.734784592765
 20
80.751307808352
 10
78.735376583814
 20
80.739550556727
 10
78.735994266561
 20
80.727798833541
 10
78.736636949978
 20
80.716054613236
 10
78.737303943038
 20
80.704319870253
 10
78.737994554713
 20
80.692596579036
 10
78.738708093974
 20
80.680886714026
 10
78.739443869793
 20
80.669192249666
 10
78.740201191141
 20
80.657515160399
 10
78.740979366992
 20
80.645857420665
 10
78.741777706316
 20
80.634221004909
 10
78.742595518086
 20
80.622607887572
 10
78.74343254409
 20
80.611018463542
 10
78.744290257381
 20
80.599446809492
 10
78.74517056383
 20
80.587885422543
 10
78.746075369306
 20
80.576326799813
 10
78.747006579681
 20
80.564763438421
 10
78.747966100824
 20
80.553187835488
 10
78.748955838604
 20
80.541592488131
 10
78.749977698894
 20
80.52996989347
 10
78.751033587561
 20
80.518312548626
 10
78.752125410478
 20
80.506612950716
 10
78.753255073513
 20
80.49486359686
 10
78.754424482537
 20
80.483056984178
 10
78.75563554342
 20
80.471185609789
 10
78.756890162032
 20
80.459241970812
 10
78.758190244243
 20
80.447218564367
 10
78.759537695924
 20
80.435107887572
 10
78.760933208164
 20
80.422908360873
 10
78.76237261293
 20
80.410642098026
 10
78.763850527408
 20
80.398337136109
 10
78.765361568785
 20
80.386021512205
 10
78.766900354247
 20
80.373723263392
 10
78.768461500981
 20
80.361470426752
 10
78.770039626173
 20
80.349291039365
 10
78.77162934701
 20
80.337213138312
 10
78.773225280678
 20
80.325264760674
 10
78.774822044363
 20
80.31347394353
 10
78.776414255252
 20
80.301868723962
 10
78.777996530531
 20
80.29047713905
 10
78.779563487388
 20
80.279327225874
 10
78.781109743007
 20
80.268447021515
 10
78.782629914576
 20
80.257864563054
 10
78.78411861928
 20
80.247607887572
 10
78.785571755294
 20
80.237696673675
 10
78.786990344735
 20
80.228117166084
 10
78.788376690708
 20
80.218847251044
 10
78.789733096318
 20
80.209864814802
 10
78.79106186467
 20
80.201147743603
 10
78.792365298869
 20
80.192673923696
 10
78.793645702019
 20
80.184421241324
 10
78.794905377226
 20
80.176367582736
 10
78.796146627594
 20
80.168490834178
 10
78.797371756227
 20
80.160768881895
 10
78.798583066232
 20
80.153179612134
 10
78.799782860713
 20
80.145700911141
 10
78.800973442774
 20
80.138310665163
 10
78.802157115521
 20
80.130986760446
 10
78.803336182058
 20
80.123707083236
 10
78.80451294549
 20
80.11644951978
  0
ARC
  5
255
330
18
100
AcDbEntity
  8
LEVEL001
  6
Continuous
 62
     3
370
    20
100
AcDbCircle
 10
79.039784708185
 20
80.634096028901
 30
0.0
 40
0.05
100
AcDbArc
 50
21.936801848468
 51
142.92793628944
  0
LINE
  5
256
330
18
100
AcDbEntity
  8
LEVEL001
  6
Continuous
 62
     3
370
    20
100
AcDbLine
 10
79.101200010081
 20
81.380834632369
 30
0.0
 11
79.081956405394
 21
81.060107887572
 31
0.0
  0
LINE
  5
257
330
18
100
AcDbEntity
  8
LEVEL001
  6
HIDDEN
 62
     1
370
    15
100
AcDbLine
 10
79.2395124454
 20
82.053857887572
 30
0.0
 11
79.260035899169
 21
82.053857887572
 31
0.0
  0
ARC
  5
258
330
18
100
AcDbEntity
  8
LEVEL001
  6
DOT
 62
     1
370
    15
100
AcDbCircle
 10
79.247535899169
 20
82.013232887572
 30
0.0
 40
0.0375
100
AcDbArc
 50
89.999999999739
 51
102.62388350075
  0
ARC
  5
259
330
18
100
AcDbEntity
  8
LEVEL001
  6
DOT
 62
     1
370
    15
100
AcDbCircle
 10
79.24753589917
 20
81.956982887572
 30
0.0
 40
0.0375
100
AcDbArc
 50
242.30847316523
 51
269.99999999875
  0
LINE
  5
25A
330
18
100
AcDbEntity
  8
LEVEL001
  6
HIDDEN
 62
     1
370
    15
100
AcDbLine
 10
79.229332297874
 20
81.916357887572
 30
0.0
 11
79.260035899169
 21
81.916357887572
 31
0.0
  0
ARC
  5
25B
330
18
100
AcDbEntity
  8
LEVEL001
  6
Continuous
 62
     3
370
    20
100
AcDbCircle
 10
79.247535899169
 20
81.956982887572
 30
0.0
 40
0.0375
100
AcDbArc
 50
180.00000000061
 51
242.30847316661
  0
ARC
  5
25C
330
18
100
AcDbEntity
  8
LEVEL001
  6
Continuous
 62
     3
370
    20
100
AcDbCircle
 10
79.247535899169
 20
82.013232887572
 30
0.0
 40
0.0375
100
AcDbArc
 50
102.62388350102
 51
180.00000000009
  0
LINE
  5
25D
330
18
100
AcDbEntity
  8
LEVEL001
  6
HIDDEN
 62
     1
370
    15
100
AcDbLine
 10
79.229332297874
 20
80.078857887572
 30
0.0
 11
79.260035899169
 21
80.078857887572
 31
0.0
  0
ARC
  5
25E
330
18
100
AcDbEntity
  8
LEVEL001
  6
DOT
 62
     1
370
    15
100
AcDbCircle
 10
79.24753589917
 20
80.038232887572
 30
0.0
 40
0.0375
100
AcDbArc
 50
90.00000000125098
 51
117.69152683479
  0
ARC
  5
25F
330
18
100
AcDbEntity
  8
LEVEL001
  6
DOT
 62
     1
370
    15
100
AcDbCircle
 10
79.247535899169
 20
79.981982887572
 30
0.0
 40
0.0375
100
AcDbArc
 50
257.37611649926
 51
270.00000000026
  0
LINE
  5
260
330
18
100
AcDbEntity
  8
LEVEL001
  6
HIDDEN
 62
     1
370
    15
100
AcDbLine
 10
79.2395124454
 20
79.941357887572
 30
0.0
 11
79.260035899169
 21
79.941357887572
 31
0.0
  0
ARC
  5
261
330
18
100
AcDbEntity
  8
LEVEL001
  6
Continuous
 62
     3
370
    20
100
AcDbCircle
 10
79.247535899169
 20
79.981982887572
 30
0.0
 40
0.0375
100
AcDbArc
 50
179.99999999997
 51
257.37611649899
  0
ARC
  5
262
330
18
100
AcDbEntity
  8
LEVEL001
  6
Continuous
 62
     3
370
    20
100
AcDbCircle
 10
79.247535899169
 20
80.038232887571
 30
0.0
 40
0.0375
100
AcDbArc
 50
117.69152683341
 51
179.99999999943
  0
ARC
  5
263
330
18
100
AcDbEntity
  8
LEVEL001
  6
Continuous
 62
     3
370
    20
100
AcDbCircle
 10
77.097629562571
 20
82.143310549605
 30
0.0
 40
2.14375
100
AcDbArc
 50
339.16524836755
 51
359.61817513939
  0
ARC
  5
264
330
18
100
AcDbEntity
  8
LEVEL001
  6
Continuous
 62
     3
370
    20
100
AcDbCircle
 10
77.097629562571
 20
79.851905225539
 30
0.0
 40
2.14375
100
AcDbArc
 50
0.3818248606005499
 51
21.936801848487
  0
ARC
  5
265
330
18
100
AcDbEntity
  8
LEVEL001
  6
Continuous
 62
     3
370
    20
100
AcDbCircle
 10
79.266331405393
 20
79.866357887572
 30
0.0
 40
0.025
100
AcDbArc
 50
269.99999999992
 51
0.0
  0
ARC
  5
266
330
18
100
AcDbEntity
  8
LEVEL001
  6
Continuous
 62
     3
370
    20
100
AcDbCircle
 10
79.266331405393
 20
79.866357887572
 30
0.0
 40
0.025
100
AcDbArc
 50
180.38182486095
 51
269.99999999992
  0
ARC
  5
267
330
18
100
AcDbEntity
  8
LEVEL001
  6
Continuous
 62
     3
370
    20
100
AcDbCircle
 10
79.266331405393
 20
82.128857887571
 30
0.0
 40
0.025
100
AcDbArc
 50
0.000000000260551
 51
90.000000000078
  0
ARC
  5
268
330
18
100
AcDbEntity
  8
LEVEL001
  6
Continuous
 62
     3
370
    20
100
AcDbCircle
 10
79.266331405393
 20
82.128857887571
 30
0.0
 40
0.025
100
AcDbArc
 50
90.000000000078
 51
179.61817513919
  0
LWPOLYLINE
  5
269
330
18
100
AcDbEntity
  8
LEVEL001
  6
DOT
 62
     1
370
    15
100
AcDbPolyline
 90
        4
 70
     0
 43
0.0
 10
79.260035899169
 20
79.972607887572
 10
79.460035899169
 20
79.972607887572
 10
79.460035899169
 20
80.047607887572
 10
79.260035899167
 20
80.047607887572
  0
LINE
  5
26A
330
18
100
AcDbEntity
  8
LEVEL001
  6
DASHDOT
 62
     1
370
    15
100
AcDbLine
 10
79.177783511793
 20
80.010107887572
 30
0.0
 11
79.493084289478
 21
80.010107887572
 31
0.0
  0
LWPOLYLINE
  5
26B
330
18
100
AcDbEntity
  8
LEVEL001
  6
DOT
 62
     1
370
    15
100
AcDbPolyline
 90
        4
 70
     0
 43
0.0
 10
79.260035899169
 20
82.022607887571
 10
79.460035899169
 20
82.022607887571
 10
79.460035899169
 20
81.947607887571
 10
79.260035899167
 20
81.947607887571
  0
LINE
  5
26C
330
18
100
AcDbEntity
  8
LEVEL001
  6
DASHDOT
 62
     1
370
    15
100
AcDbLine
 10
79.177783511793
 20
81.985107887572
 30
0.0
 11
79.493084289478
 21
81.985107887572
 31
0.0
  0
LINE
  5
26D
330
18
100
AcDbEntity
  8
LEVEL001
  6
DASHDOT
 62
     1
370
    15
100
AcDbLine
 10
78.514374417615
 20
80.997607887572
 30
0.0
 11
82.040212648191
 21
80.997607887572
 31
0.0
  0
LINE
  5
26E
330
18
100
AcDbEntity
  8
LEVEL001
  6
Continuous
 62
     1
370
    15
100
AcDbLine
 10
78.728831405394
 20
80.997607887572
 30
0.0
 11
71.205438359796
 21
86.712132912976
 31
0.0
  0
CIRCLE
  5
26F
330
18
100
AcDbEntity
  8
LEVEL001
  6
Continuous
 62
     1
370
    15
100
AcDbCircle
 10
68.020126065341
 20
89.131592684659
 30
0.0
 40
4.0
  0
LINE
  5
270
330
18
100
AcDbEntity
  8
LEVEL001
  6
Continuous
 62
     1
370
    15
100
AcDbLine
 10
78.728831405394
 20
80.997607887572
 30
0.0
 11
76.826066403509
 21
83.452329109039
 31
0.0
  0
LINE
  5
271
330
18
100
AcDbEntity
  8
LEVEL001
  6
Continuous
 62
     1
370
    15
100
AcDbLine
 10
78.728831405394
 20
80.997607887572
 30
0.0
 11
75.853627965596
 21
82.172076323629
 31
0.0
  0
MTEXT
  5
272
330
18
100
AcDbEntity
  8
LEVEL001
 62
     3
370
    20
100
AcDbMText
 10
65.191698940594
 20
86.303165559913
 30
0.0
 40
5.6568542494924
 41
0.0
 71
     7
 72
     1
  1
\A1;４
 73
     1
 44
1.0
  0
LINE
  5
273
330
18
100
AcDbEntity
  8
LEVEL001
  6
Continuous
 62
     3
370
    20
100
AcDbLine
 10
68.193212325841
 20
66.622607887572
 30
0.0
 11
69.859878992508
 21
63.735856541623
 31
0.0
  0
LINE
  5
274
330
18
100
AcDbEntity
  8
LEVEL001
  6
Continuous
 62
     3
370
    20
100
AcDbLine
 10
66.526545659174
 20
66.622607887572
 30
0.0
 11
69.026545659174
 21
62.292480868649
 31
0.0
  0
LINE
  5
275
330
18
100
AcDbEntity
  8
LEVEL001
  6
Continuous
 62
     3
370
    20
100
AcDbLine
 10
66.526545659174
 20
66.622607887572
 30
0.0
 11
64.026545659174
 21
62.292480868649
 31
0.0
  0
LINE
  5
276
330
18
100
AcDbEntity
  8
LEVEL001
  6
Continuous
 62
     3
370
    20
100
AcDbLine
 10
63.193212325841
 20
66.622607887572
 30
0.0
 11
64.859878992508
 21
63.735856541623
 31
0.0
  0
LINE
  5
277
330
18
100
AcDbEntity
  8
LEVEL001
  6
Continuous
 62
     3
370
    20
100
AcDbLine
 10
67.359878992508
 20
65.179232214598
 30
0.0
 11
65.693212325841
 21
62.292480868649
 31
0.0
  0
LINE
  5
278
330
18
100
AcDbEntity
  8
LEVEL001
  6
Continuous
 62
     3
370
    20
100
AcDbLine
 10
68.193212325841
 20
63.735856541623
 30
0.0
 11
67.359878992508
 21
62.292480868649
 31
0.0
  0
LINE
  5
279
330
18
100
AcDbEntity
  8
LEVEL001
  6
Continuous
 62
     3
370
    20
100
AcDbLine
 10
64.859878992508
 20
66.622607887572
 30
0.0
 11
65.693212325841
 21
65.179232214598
 31
0.0
  0
LINE
  5
27A
330
18
100
AcDbEntity
  8
LEVEL001
  6
Continuous
 62
     3
370
    20
100
AcDbLine
 10
74.916331405393
 20
66.622607887572
 30
0.0
 11
62.151545659175
 21
66.622607887572
 31
0.0
  0
LINE
  5
27B
330
18
100
AcDbEntity
  8
LEVEL001
  6
Continuous
 62
     3
370
    20
100
AcDbLine
 10
71.526545659174
 20
66.622607887572
 30
0.0
 11
74.026545659175
 21
62.292480868649
 31
0.0
  0
LINE
  5
27C
330
18
100
AcDbEntity
  8
LEVEL001
  6
Continuous
 62
     3
370
    20
100
AcDbLine
 10
71.526545659174
 20
66.622607887572
 30
0.0
 11
69.026545659174
 21
62.292480868649
 31
0.0
  0
LINE
  5
27D
330
18
100
AcDbEntity
  8
LEVEL001
  6
Continuous
 62
     3
370
    20
100
AcDbLine
 10
72.359878992508
 20
65.179232214598
 30
0.0
 11
70.693212325841
 21
62.292480868649
 31
0.0
  0
LINE
  5
27E
330
18
100
AcDbEntity
  8
LEVEL001
  6
Continuous
 62
     3
370
    20
100
AcDbLine
 10
73.193212325841
 20
63.735856541623
 30
0.0
 11
72.359878992508
 21
62.292480868649
 31
0.0
  0
LINE
  5
27F
330
18
100
AcDbEntity
  8
LEVEL001
  6
Continuous
 62
     3
370
    20
100
AcDbLine
 10
69.859878992508
 20
66.622607887572
 30
0.0
 11
70.693212325841
 21
65.179232214598
 31
0.0
  0
LINE
  5
280
330
18
100
AcDbEntity
  8
LEVEL001
  6
Continuous
 62
     3
370
    20
100
AcDbLine
 10
73.249664738727
 20
66.622607887572
 30
0.0
 11
74.916331405393
 21
63.735856541623
 31
0.0
  0
LINE
  5
281
330
18
100
AcDbEntity
  8
LEVEL001
  6
Continuous
 62
     3
370
    20
100
AcDbLine
 10
117.59723623399
 20
66.622607887572
 30
0.0
 11
120.09723623399
 21
62.292480868649
 31
0.0
  0
LINE
  5
282
330
18
100
AcDbEntity
  8
LEVEL001
  6
Continuous
 62
     3
370
    20
100
AcDbLine
 10
117.59723623399
 20
66.622607887572
 30
0.0
 11
115.09723623399
 21
62.292480868649
 31
0.0
  0
LINE
  5
283
330
18
100
AcDbEntity
  8
LEVEL001
  6
Continuous
 62
     3
370
    20
100
AcDbLine
 10
114.26390290066
 20
66.622607887572
 30
0.0
 11
115.93056956733
 21
63.735856541623
 31
0.0
  0
LINE
  5
284
330
18
100
AcDbEntity
  8
LEVEL001
  6
Continuous
 62
     3
370
    20
100
AcDbLine
 10
112.59723623399
 20
66.622607887572
 30
0.0
 11
115.09723623399
 21
62.292480868649
 31
0.0
  0
LINE
  5
285
330
18
100
AcDbEntity
  8
LEVEL001
  6
Continuous
 62
     3
370
    20
100
AcDbLine
 10
118.43056956733
 20
65.179232214598
 30
0.0
 11
116.76390290066
 21
62.292480868649
 31
0.0
  0
LINE
  5
286
330
18
100
AcDbEntity
  8
LEVEL001
  6
Continuous
 62
     3
370
    20
100
AcDbLine
 10
119.26390290066
 20
63.735856541623
 30
0.0
 11
118.43056956733
 21
62.292480868649
 31
0.0
  0
LINE
  5
287
330
18
100
AcDbEntity
  8
LEVEL001
  6
Continuous
 62
     3
370
    20
100
AcDbLine
 10
114.26390290066
 20
63.735856541623
 30
0.0
 11
113.43056956733
 21
62.292480868649
 31
0.0
  0
LINE
  5
288
330
18
100
AcDbEntity
  8
LEVEL001
  6
Continuous
 62
     3
370
    20
100
AcDbLine
 10
115.93056956733
 20
66.622607887572
 30
0.0
 11
116.76390290066
 21
65.179232214598
 31
0.0
  0
LINE
  5
289
330
18
100
AcDbEntity
  8
LEVEL001
  6
Continuous
 62
     3
370
    20
100
AcDbLine
 10
94.480288480319
 20
66.622607887572
 30
0.0
 11
95.313621813652
 21
65.179232214598
 31
0.0
  0
LINE
  5
28A
330
18
100
AcDbEntity
  8
LEVEL001
  6
Continuous
 62
     3
370
    20
100
AcDbLine
 10
92.813621813652
 20
66.622607887572
 30
0.0
 11
94.480288480319
 21
63.735856541623
 31
0.0
  0
LINE
  5
28B
330
18
100
AcDbEntity
  8
LEVEL001
  6
Continuous
 62
     3
370
    20
100
AcDbLine
 10
91.166331405393
 20
66.622607887572
 30
0.0
 11
93.666331405393
 21
62.292480868649
 31
0.0
  0
LINE
  5
28C
330
18
100
AcDbEntity
  8
LEVEL001
  6
Continuous
 62
     3
370
    20
100
AcDbLine
 10
91.166331405393
 20
66.622607887572
 30
0.0
 11
88.666331405393
 21
62.292480868649
 31
0.0
  0
LINE
  5
28D
330
18
100
AcDbEntity
  8
LEVEL001
  6
Continuous
 62
     3
370
    20
100
AcDbLine
 10
87.83299807206
 20
66.622607887572
 30
0.0
 11
89.499664738727
 21
63.735856541623
 31
0.0
  0
LINE
  5
28E
330
18
100
AcDbEntity
  8
LEVEL001
  6
Continuous
 62
     3
370
    20
100
AcDbLine
 10
86.166331405393
 20
66.622607887572
 30
0.0
 11
88.666331405393
 21
62.292480868649
 31
0.0
  0
LINE
  5
28F
330
18
100
AcDbEntity
  8
LEVEL001
  6
Continuous
 62
     3
370
    20
100
AcDbLine
 10
89.499664738727
 20
66.622607887572
 30
0.0
 11
90.33299807206
 21
65.179232214598
 31
0.0
  0
LINE
  5
290
330
18
100
AcDbEntity
  8
LEVEL001
  6
Continuous
 62
     3
370
    20
100
AcDbLine
 10
91.999664738727
 20
65.179232214598
 30
0.0
 11
90.33299807206
 21
62.292480868649
 31
0.0
  0
LINE
  5
291
330
18
100
AcDbEntity
  8
LEVEL001
  6
Continuous
 62
     3
370
    20
100
AcDbLine
 10
92.83299807206
 20
63.735856541623
 30
0.0
 11
91.999664738727
 21
62.292480868649
 31
0.0
  0
LINE
  5
292
330
18
100
AcDbEntity
  8
LEVEL001
  6
Continuous
 62
     3
370
    20
100
AcDbLine
 10
87.83299807206
 20
63.735856541623
 30
0.0
 11
86.999664738727
 21
62.292480868649
 31
0.0
  0
LINE
  5
293
330
18
100
AcDbEntity
  8
LEVEL001
  6
Continuous
 62
     3
370
    20
100
AcDbLine
 10
86.999664738727
 20
65.179232214598
 30
0.0
 11
86.156335480974
 21
63.71854309266
 31
0.0
  0
LINE
  5
294
330
18
100
AcDbEntity
  8
LEVEL001
  6
Continuous
 62
     3
370
    20
100
AcDbLine
 10
111.41165866562
 20
66.622607887572
 30
0.0
 11
119.00627003012
 21
66.622607887572
 31
0.0
  0
LINE
  5
295
330
18
100
AcDbEntity
  8
LEVEL001
  6
Continuous
 62
     3
370
    20
100
AcDbLine
 10
86.166331405393
 20
66.622607887572
 30
0.0
 11
97.614396369597
 21
66.622607887572
 31
0.0
  0
LINE
  5
296
330
18
100
AcDbEntity
  8
LEVEL001
  6
Continuous
 62
     3
370
    20
100
AcDbLine
 10
178.09088090267
 20
48.447769425526
 30
0.0
 11
220.09088090267
 21
48.447769425526
 31
0.0
  0
TEXT
  5
297
330
18
100
AcDbEntity
  8
LEVEL001
 62
     3
370
    20
100
AcDbText
 10
192.84088090267
 20
43.447769425526
 30
0.0
 40
5.0
  1
Ｓ＝１：５
 41
0.5
 72
     5
 11
205.34088090267
 21
43.447769425526
 31
0.0
100
AcDbText
  0
TEXT
  5
298
330
18
100
AcDbEntity
  8
LEVEL001
 62
     3
370
    20
100
AcDbText
 10
179.09088090267
 20
49.447769425526
 30
0.0
 40
5.0
  1
ロープ掛け部詳細
 72
     5
 11
219.09088090267
 21
49.447769425526
 31
0.0
100
AcDbText
  0
LWPOLYLINE
  5
299
330
18
100
AcDbEntity
  8
LEVEL001
  6
Continuous
 62
     3
370
    20
100
AcDbPolyline
 90
        4
 70
     1
 43
0.0
 10
189.51522200923
 20
221.04623668676
 10
189.51522200923
 20
219.04623668676
 10
204.31522200923
 20
219.04623668676
 10
204.31522200923
 20
221.04623668676
  0
LINE
  5
29A
330
18
100
AcDbEntity
  8
LEVEL001
  6
DOT
 62
     1
370
    15
100
AcDbLine
 10
190.16522200923
 20
213.24623668676
 30
0.0
 11
203.66522200923
 21
213.24623668676
 31
0.0
  0
LINE
  5
29B
330
18
100
AcDbEntity
  8
LEVEL001
  6
DOT
 62
     1
370
    15
100
AcDbLine
 10
203.66522200923
 20
219.04623668676
 30
0.0
 11
203.66522200923
 21
213.24623668676
 31
0.0
  0
LINE
  5
29C
330
18
100
AcDbEntity
  8
LEVEL001
  6
DOT
 62
     1
370
    15
100
AcDbLine
 10
190.16522200923
 20
219.04623668676
 30
0.0
 11
190.16522200923
 21
213.24623668676
 31
0.0
  0
LINE
  5
29D
330
18
100
AcDbEntity
  8
LEVEL001
  6
DASHDOT
 62
     1
370
    15
100
AcDbLine
 10
185.51522200923
 20
236.87167089251
 30
0.0
 11
185.51522200923
 21
234.02080248101
 31
0.0
  0
LINE
  5
29E
330
18
100
AcDbEntity
  8
LEVEL001
  6
DASHDOT
 62
     1
370
    15
100
AcDbLine
 10
186.97890655274
 20
235.44623668676
 30
0.0
 11
184.05153746571
 21
235.44623668676
 31
0.0
  0
LINE
  5
29F
330
18
100
AcDbEntity
  8
LEVEL001
  6
DOT
 62
     1
370
    15
100
AcDbLine
 10
184.31522200923
 20
228.64623668676
 30
0.0
 11
191.31522200923
 21
228.64623668676
 31
0.0
  0
ARC
  5
2A0
330
18
100
AcDbEntity
  8
LEVEL001
  6
DOT
 62
     1
370
    15
100
AcDbCircle
 10
191.31522200923
 20
227.64623668676
 30
0.0
 40
1.0
100
AcDbArc
 50
0.0
 51
90.0
  0
LINE
  5
2A1
330
18
100
AcDbEntity
  8
LEVEL001
  6
DOT
 62
     1
370
    15
100
AcDbLine
 10
201.51522200923
 20
222.64623668676
 30
0.0
 11
192.31522200923
 21
222.64623668676
 31
0.0
  0
LINE
  5
2A2
330
18
100
AcDbEntity
  8
LEVEL001
  6
DOT
 62
     1
370
    15
100
AcDbLine
 10
192.31522200923
 20
227.64623668676
 30
0.0
 11
192.31522200923
 21
222.04623668676
 31
0.0
  0
LINE
  5
2A3
330
18
100
AcDbEntity
  8
LEVEL001
  6
DOT
 62
     1
370
    15
100
AcDbLine
 10
193.41522200923
 20
222.64623668676
 30
0.0
 11
193.41522200923
 21
222.04623668676
 31
0.0
  0
LINE
  5
2A4
330
18
100
AcDbEntity
  8
LEVEL001
  6
DOT
 62
     1
370
    15
100
AcDbLine
 10
194.41522200923
 20
222.64623668676
 30
0.0
 11
194.41522200923
 21
222.04623668676
 31
0.0
  0
LINE
  5
2A5
330
18
100
AcDbEntity
  8
LEVEL001
  6
DOT
 62
     1
370
    15
100
AcDbLine
 10
199.41522200923
 20
222.64623668676
 30
0.0
 11
199.41522200923
 21
222.04623668676
 31
0.0
  0
LINE
  5
2A6
330
18
100
AcDbEntity
  8
LEVEL001
  6
DOT
 62
     1
370
    15
100
AcDbLine
 10
200.41522200923
 20
222.64623668676
 30
0.0
 11
200.41522200923
 21
222.04623668676
 31
0.0
  0
LINE
  5
2A7
330
18
100
AcDbEntity
  8
LEVEL001
  6
DOT
 62
     1
370
    15
100
AcDbLine
 10
201.51522200923
 20
240.04623668676
 30
0.0
 11
201.51522200923
 21
222.04623668676
 31
0.0
  0
LINE
  5
2A8
330
18
100
AcDbEntity
  8
LEVEL001
  6
DOT
 62
     1
370
    15
100
AcDbLine
 10
192.31522200923
 20
222.04623668676
 30
0.0
 11
201.51522200923
 21
222.04623668676
 31
0.0
  0
LINE
  5
2A9
330
18
100
AcDbEntity
  8
LEVEL001
  6
DOT
 62
     1
370
    15
100
AcDbLine
 10
201.51522200923
 20
240.04623668676
 30
0.0
 11
183.71522200923
 21
240.04623668676
 31
0.0
  0
LINE
  5
2AA
330
18
100
AcDbEntity
  8
LEVEL001
  6
DOT
 62
     1
370
    15
100
AcDbLine
 10
201.51522200923
 20
239.44623668676
 30
0.0
 11
183.71522200923
 21
239.44623668676
 31
0.0
  0
LINE
  5
2AB
330
18
100
AcDbEntity
  8
LEVEL001
  6
DOT
 62
     1
370
    15
100
AcDbLine
 10
195.41522200923
 20
239.44623668676
 30
0.0
 11
195.41522200923
 21
240.04623668676
 31
0.0
  0
LINE
  5
2AC
330
18
100
AcDbEntity
  8
LEVEL001
  6
DOT
 62
     1
370
    15
100
AcDbLine
 10
198.41522200923
 20
240.04623668676
 30
0.0
 11
198.41522200923
 21
239.44623668676
 31
0.0
  0
ARC
  5
2AD
330
18
100
AcDbEntity
  8
LEVEL001
  6
DOT
 62
     1
370
    15
100
AcDbCircle
 10
184.31522200923
 20
229.24623668676
 30
0.0
 40
0.6
100
AcDbArc
 50
180.0
 51
269.99999999999
  0
LINE
  5
2AE
330
18
100
AcDbEntity
  8
LEVEL001
  6
DOT
 62
     1
370
    15
100
AcDbLine
 10
183.71522200923
 20
229.24623668676
 30
0.0
 11
183.71522200923
 21
232.24608093002
 31
0.0
  0
CIRCLE
  5
2AF
330
18
100
AcDbEntity
  8
LEVEL001
  6
DOT
 62
     1
370
    15
100
AcDbCircle
 10
185.51522200923
 20
235.44623668676
 30
0.0
 40
0.62
  0
CIRCLE
  5
2B0
330
18
100
AcDbEntity
  8
LEVEL001
  6
DOT
 62
     1
370
    15
100
AcDbCircle
 10
187.91522200923
 20
237.22623668676
 30
0.0
 40
0.62
  0
CIRCLE
  5
2B1
330
18
100
AcDbEntity
  8
LEVEL001
  6
DOT
 62
     1
370
    15
100
AcDbCircle
 10
195.71522200923
 20
237.22623668676
 30
0.0
 40
0.62
  0
LINE
  5
2B2
330
18
100
AcDbEntity
  8
LEVEL001
  6
DOT
 62
     1
370
    15
100
AcDbLine
 10
183.71522200923
 20
240.04623668676
 30
0.0
 11
183.71522200923
 21
232.24608093002
 31
0.0
  0
CIRCLE
  5
2B3
330
18
100
AcDbEntity
  8
LEVEL001
  6
DOT
 62
     1
370
    15
100
AcDbCircle
 10
185.51522200923
 20
235.44623668676
 30
0.0
 40
1.75
  0
LWPOLYLINE
  5
2B4
330
18
100
AcDbEntity
  8
LEVEL001
  6
Continuous
 62
     3
370
    20
100
AcDbPolyline
 90
        4
 70
     0
 43
0.0
 10
204.41522200923
 20
189.04623668676
 10
204.41522200923
 20
219.04623668676
 10
189.41522200923
 20
219.04623668676
 10
189.41522200923
 20
189.04623668676
  0
ARC
  5
2B5
330
18
100
AcDbEntity
  8
LEVEL001
  6
Continuous
 62
     3
370
    20
100
AcDbCircle
 10
193.16522200923
 20
195.54142721514
 30
0.0
 40
7.5
100
AcDbArc
 50
239.99999999999
 51
299.99999999999
  0
ARC
  5
2B6
330
18
100
AcDbEntity
  8
LEVEL001
  6
Continuous
 62
     3
370
    20
100
AcDbCircle
 10
200.66522200923
 20
195.54142721514
 30
0.0
 40
7.5
100
AcDbArc
 50
240.0
 51
300.0
  0
ARC
  5
2B7
330
18
100
AcDbEntity
  8
LEVEL001
  6
Continuous
 62
     3
370
    20
100
AcDbCircle
 10
200.66522200923
 20
182.55104615838
 30
0.0
 40
7.5
100
AcDbArc
 50
59.999999999996
 51
120.0
  0
LINE
  5
2B8
330
18
100
AcDbEntity
  8
LEVEL001
  6
DASHDOT
 62
     1
370
    15
100
AcDbLine
 10
196.91522200923
 20
250.63540852908
 30
0.0
 11
196.91522200923
 21
184.04623668676
 31
0.0
  0
LINE
  5
2B9
330
18
100
AcDbEntity
  8
LEVEL001
  6
DOT
 62
     2
370
    20
100
AcDbLine
 10
187.26522200923
 20
235.44623668676
 30
0.0
 11
187.26522200923
 21
221.44854675939
 31
0.0
  0
LINE
  5
2BA
330
18
100
AcDbEntity
  8
LEVEL001
  6
DOT
 62
     2
370
    20
100
AcDbLine
 10
188.86522200923
 20
235.44623668676
 30
0.0
 11
188.86522200923
 21
221.11536579266
 31
0.0
  0
LINE
  5
2BB
330
18
100
AcDbEntity
  8
LEVEL001
  6
DOT
 62
     2
370
    20
100
AcDbLine
 10
182.16522200923
 20
235.44623668676
 30
0.0
 11
182.16522200923
 21
225.12016213062
 31
0.0
  0
LINE
  5
2BC
330
18
100
AcDbEntity
  8
LEVEL001
  6
DOT
 62
     2
370
    20
100
AcDbLine
 10
183.76522200923
 20
235.44623668676
 30
0.0
 11
183.76522200923
 21
223.35943354684
 31
0.0
  0
ARC
  5
2BD
330
18
100
AcDbEntity
  8
LEVEL001
  6
DOT
 62
     2
370
    20
100
AcDbCircle
 10
185.51522200923
 20
235.44623668676
 30
0.0
 40
1.7500000000001
100
AcDbArc
 50
0.0
 51
180.0
  0
ARC
  5
2BE
330
18
100
AcDbEntity
  8
LEVEL001
  6
DOT
 62
     2
370
    20
100
AcDbCircle
 10
185.51522200923
 20
235.44623668676
 30
0.0
 40
3.3500000000001
100
AcDbArc
 50
0.0
 51
180.0
  0
LINE
  5
2BF
330
18
100
AcDbEntity
  8
LEVEL001
  6
Continuous
 62
     3
370
    20
100
AcDbLine
 10
187.26522200923
 20
221.44854675939
 30
0.0
 11
187.26522200923
 21
207.54623668676
 31
0.0
  0
LINE
  5
2C0
330
18
100
AcDbEntity
  8
LEVEL001
  6
Continuous
 62
     3
370
    20
100
AcDbLine
 10
188.86522200923
 20
221.11536579266
 30
0.0
 11
188.86522200923
 21
207.54623668676
 31
0.0
  0
LINE
  5
2C1
330
18
100
AcDbEntity
  8
LEVEL001
  6
Continuous
 62
     3
370
    20
100
AcDbLine
 10
182.16522200923
 20
225.12016213062
 30
0.0
 11
182.16522200923
 21
207.54623668676
 31
0.0
  0
LINE
  5
2C2
330
18
100
AcDbEntity
  8
LEVEL001
  6
Continuous
 62
     3
370
    20
100
AcDbLine
 10
183.76522200923
 20
223.35943354684
 30
0.0
 11
183.76522200923
 21
207.54623668676
 31
0.0
  0
ARC
  5
2C3
330
18
100
AcDbEntity
  8
LEVEL001
  6
Continuous
 62
     3
370
    20
100
AcDbCircle
 10
185.51522200922
 20
192.39623668676
 30
0.0
 40
1.7500000000001
100
AcDbArc
 50
179.99999999999
 51
0.0
  0
ARC
  5
2C4
330
18
100
AcDbEntity
  8
LEVEL001
  6
Continuous
 62
     3
370
    20
100
AcDbCircle
 10
185.51522200922
 20
192.39623668676
 30
0.0
 40
3.3500000000001
100
AcDbArc
 50
179.99999999999
 51
0.0
  0
LINE
  5
2C5
330
18
100
AcDbEntity
  8
LEVEL001
  6
Continuous
 62
     3
370
    20
100
AcDbLine
 10
187.26522200922
 20
192.39623668676
 30
0.0
 11
187.26522200923
 21
205.54623668676
 31
0.0
  0
LINE
  5
2C6
330
18
100
AcDbEntity
  8
LEVEL001
  6
Continuous
 62
     3
370
    20
100
AcDbLine
 10
188.86522200922
 20
192.39623668676
 30
0.0
 11
188.86522200923
 21
205.54623668676
 31
0.0
  0
LINE
  5
2C7
330
18
100
AcDbEntity
  8
LEVEL001
  6
Continuous
 62
     3
370
    20
100
AcDbLine
 10
182.16522200922
 20
192.39623668676
 30
0.0
 11
182.16522200923
 21
205.54623668676
 31
0.0
  0
LINE
  5
2C8
330
18
100
AcDbEntity
  8
LEVEL001
  6
Continuous
 62
     3
370
    20
100
AcDbLine
 10
183.76522200922
 20
192.39623668676
 30
0.0
 11
183.76522200923
 21
205.54623668676
 31
0.0
  0
ARC
  5
2C9
330
18
100
AcDbEntity
  8
LEVEL001
  6
Continuous
 62
     3
370
    20
100
AcDbCircle
 10
183.36522200923
 20
204.85341636373
 30
0.0
 40
0.79999999999659
100
AcDbArc
 50
60.000000000002
 51
120.0
  0
ARC
  5
2CA
330
18
100
AcDbEntity
  8
LEVEL001
  6
Continuous
 62
     3
370
    20
100
AcDbCircle
 10
182.56522200923
 20
204.85341636373
 30
0.0
 40
0.8000000000035
100
AcDbArc
 50
59.999999999994
 51
119.99999999999
  0
ARC
  5
2CB
330
18
100
AcDbEntity
  8
LEVEL001
  6
Continuous
 62
     3
370
    20
100
AcDbCircle
 10
182.56522200923
 20
206.23905700979
 30
0.0
 40
0.8000000000035
100
AcDbArc
 50
239.99999999999
 51
299.99999999999
  0
ARC
  5
2CC
330
18
100
AcDbEntity
  8
LEVEL001
  6
Continuous
 62
     3
370
    20
100
AcDbCircle
 10
182.56522200923
 20
208.23905700979
 30
0.0
 40
0.8
100
AcDbArc
 50
240.0
 51
300.0
  0
ARC
  5
2CD
330
18
100
AcDbEntity
  8
LEVEL001
  6
Continuous
 62
     3
370
    20
100
AcDbCircle
 10
183.36522200923
 20
208.23905700979
 30
0.0
 40
0.80000000000009
100
AcDbArc
 50
239.99999999998
 51
299.99999999999
  0
ARC
  5
2CE
330
18
100
AcDbEntity
  8
LEVEL001
  6
Continuous
 62
     3
370
    20
100
AcDbCircle
 10
183.36522200923
 20
206.85341636373
 30
0.0
 40
0.80000000000009
100
AcDbArc
 50
59.99999999999098
 51
120.0
  0
ARC
  5
2CF
330
18
100
AcDbEntity
  8
LEVEL001
  6
Continuous
 62
     3
370
    20
100
AcDbCircle
 10
188.46522200923
 20
204.85341636373
 30
0.0
 40
0.79999999999659
100
AcDbArc
 50
60.000000000002
 51
120.0
  0
ARC
  5
2D0
330
18
100
AcDbEntity
  8
LEVEL001
  6
Continuous
 62
     3
370
    20
100
AcDbCircle
 10
187.66522200923
 20
204.85341636373
 30
0.0
 40
0.8000000000035
100
AcDbArc
 50
59.999999999987
 51
119.99999999999
  0
ARC
  5
2D1
330
18
100
AcDbEntity
  8
LEVEL001
  6
Continuous
 62
     3
370
    20
100
AcDbCircle
 10
187.66522200923
 20
206.23905700979
 30
0.0
 40
0.8000000000035
100
AcDbArc
 50
239.99999999999
 51
299.99999999999
  0
ARC
  5
2D2
330
18
100
AcDbEntity
  8
LEVEL001
  6
Continuous
 62
     3
370
    20
100
AcDbCircle
 10
187.66522200923
 20
208.23905700979
 30
0.0
 40
0.8
100
AcDbArc
 50
239.99999999999
 51
300.0
  0
ARC
  5
2D3
330
18
100
AcDbEntity
  8
LEVEL001
  6
Continuous
 62
     3
370
    20
100
AcDbCircle
 10
188.46522200923
 20
208.23905700979
 30
0.0
 40
0.80000000000009
100
AcDbArc
 50
239.99999999999
 51
299.99999999999
  0
ARC
  5
2D4
330
18
100
AcDbEntity
  8
LEVEL001
  6
Continuous
 62
     3
370
    20
100
AcDbCircle
 10
188.46522200923
 20
206.85341636373
 30
0.0
 40
0.80000000000009
100
AcDbArc
 50
59.999999999994
 51
119.99999999999
  0
LINE
  5
2D5
330
18
100
AcDbEntity
  8
LEVEL001
  6
DASHDOT
 62
     1
370
    15
100
AcDbLine
 10
205.48237256375
 20
216.04623668676
 30
0.0
 11
202.53093772854
 21
216.04623668676
 31
0.0
  0
LINE
  5
2D6
330
18
100
AcDbEntity
  8
LEVEL001
  6
DASHDOT
 62
     1
370
    15
100
AcDbLine
 10
193.1652220092
 20
217.21211905174
 30
0.0
 11
193.1652220092
 21
214.88035432178
 31
0.0
  0
LINE
  5
2D7
330
18
100
AcDbEntity
  8
LEVEL001
  6
DASHDOT
 62
     1
370
    15
100
AcDbLine
 10
192.19684796459
 20
216.04623668676
 30
0.0
 11
194.13359605381
 21
216.04623668676
 31
0.0
  0
ARC
  5
2D8
330
18
100
AcDbEntity
  8
LEVEL001
  6
DOT
 62
     1
370
    15
100
AcDbCircle
 10
196.91522200923
 20
231.74623668676
 30
0.0
 40
16.4
100
AcDbArc
 50
10.548276958763
 51
169.45172304124
  0
LINE
  5
2D9
330
18
100
AcDbEntity
  8
LEVEL001
  6
DASHDOT
 62
     1
370
    15
100
AcDbLine
 10
195.81522200923
 20
232.14848535701
 30
0.0
 11
198.01522200923
 21
232.14848535701
 31
0.0
  0
CIRCLE
  5
2DA
330
18
100
AcDbEntity
  8
LEVEL001
  6
Continuous
 62
     3
370
    20
100
AcDbCircle
 10
196.91522200923
 20
232.14848535701
 30
0.0
 40
0.5
  0
LINE
  5
2DB
330
18
100
AcDbEntity
  8
LEVEL001
  6
Continuous
 62
     3
370
    20
100
AcDbLine
 10
180.41522200923
 20
230.64623668676
 30
0.0
 11
213.41522200923
 21
230.64623668676
 31
0.0
  0
LINE
  5
2DC
330
18
100
AcDbEntity
  8
LEVEL001
  6
DOT
 62
     1
370
    15
100
AcDbLine
 10
213.03807854652
 20
234.74848535702
 30
0.0
 11
213.11517192458
 21
230.64623668676
 31
0.0
  0
LINE
  5
2DD
330
18
100
AcDbEntity
  8
LEVEL001
  6
DOT
 62
     1
370
    15
100
AcDbLine
 10
180.79236547194
 20
234.74848535702
 30
0.0
 11
180.71527209388
 21
230.64623668676
 31
0.0
  0
LINE
  5
2DE
330
18
100
AcDbEntity
  8
LEVEL001
  6
Continuous
 62
     3
370
    20
100
AcDbLine
 10
213.41522200923
 20
230.64623668676
 30
0.0
 11
213.34634214276
 21
234.41559550356
 31
0.0
  0
ARC
  5
2DF
330
18
100
AcDbEntity
  8
LEVEL001
  6
Continuous
 62
     3
370
    20
100
AcDbCircle
 10
209.34700982662
 20
234.34251318657
 30
0.0
 40
4.0
100
AcDbArc
 50
1.0468853298494
 51
11.796205268404
  0
LINE
  5
2E0
330
18
100
AcDbEntity
  8
LEVEL001
  6
Continuous
 62
     3
370
    20
100
AcDbLine
 10
180.41522200923
 20
230.64623668676
 30
0.0
 11
180.48410187569
 21
234.4155955035
 31
0.0
  0
ARC
  5
2E1
330
18
100
AcDbEntity
  8
LEVEL001
  6
Continuous
 62
     3
370
    20
100
AcDbCircle
 10
184.48343419183
 20
234.34251318652
 30
0.0
 40
4.0
100
AcDbArc
 50
168.20379473185
 51
178.95311467031
  0
ARC
  5
2E2
330
18
100
AcDbEntity
  8
LEVEL001
  6
Continuous
 62
     3
370
    20
100
AcDbCircle
 10
196.91522200923
 20
231.74623668676
 30
0.0
 40
16.7
100
AcDbArc
 50
11.796205268404
 51
168.20379473184
  0
ARC
  5
2E3
330
18
100
AcDbEntity
  8
LEVEL001
  6
Continuous
 62
     3
370
    20
100
AcDbCircle
 10
203.81522200923
 20
230.64623668676
 30
0.0
 40
9.6
100
AcDbArc
 50
270.0
 51
0.0
  0
LINE
  5
2E4
330
18
100
AcDbEntity
  8
LEVEL001
  6
Continuous
 62
     3
370
    20
100
AcDbLine
 10
213.41522200923
 20
230.64623668676
 30
0.0
 11
213.09522200923
 21
230.64623668676
 31
0.0
  0
POINT
  5
2E5
330
18
100
AcDbEntity
  8
LEVEL001
 62
     1
100
AcDbPoint
 10
199.91522200923
 20
222.04623668676
 30
0.0
  0
LINE
  5
2E6
330
18
100
AcDbEntity
  8
LEVEL001
  6
DOT
 62
     1
370
    15
100
AcDbLine
 10
196.91522200923
 20
222.04623668676
 30
0.0
 11
203.81522200923
 21
222.04623668676
 31
0.0
  0
ARC
  5
2E7
330
18
100
AcDbEntity
  8
LEVEL001
  6
DOT
 62
     1
370
    15
100
AcDbCircle
 10
203.81522200923
 20
230.64623668676
 30
0.0
 40
8.6
100
AcDbArc
 50
270.0
 51
0.0
  0
LINE
  5
2E8
330
18
100
AcDbEntity
  8
LEVEL001
  6
DOT
 62
     1
370
    15
100
AcDbLine
 10
212.61522200923
 20
233.64623668676
 30
0.0
 11
212.41522200923
 21
233.44623668676
 31
0.0
  0
LINE
  5
2E9
330
18
100
AcDbEntity
  8
LEVEL001
  6
DOT
 62
     1
370
    15
100
AcDbLine
 10
212.41522200923
 20
230.64623668676
 30
0.0
 11
212.41522200923
 21
233.44623668676
 31
0.0
  0
LINE
  5
2EA
330
18
100
AcDbEntity
  8
LEVEL001
  6
Continuous
 62
     3
370
    20
100
AcDbLine
 10
213.09522200923
 20
230.64623668676
 30
0.0
 11
196.91522200923
 21
230.64623668676
 31
0.0
  0
LINE
  5
2EB
330
18
100
AcDbEntity
  8
LEVEL001
  6
Continuous
 62
     3
370
    20
100
AcDbLine
 10
203.81522200923
 20
221.04623668676
 30
0.0
 11
196.91522200923
 21
221.04623668676
 31
0.0
  0
LINE
  5
2EC
330
18
100
AcDbEntity
  8
LEVEL001
  6
DASHDOT
 62
     1
370
    15
100
AcDbLine
 10
185.51522200923
 20
224.52169588765
 30
0.0
 11
185.51522200923
 21
221.04884120673
 31
0.0
  0
POINT
  5
2ED
330
18
100
AcDbEntity
  8
LEVEL001
 62
     1
100
AcDbPoint
 10
198.41522200923
 20
222.04623668676
 30
0.0
  0
LINE
  5
2EE
330
18
100
AcDbEntity
  8
LEVEL001
  6
DASHDOT
 62
     1
370
    15
100
AcDbLine
 10
196.91522200923
 20
250.63540852908
 30
0.0
 11
196.91522200923
 21
207.04623668676
 31
0.0
  0
ARC
  5
2EF
330
18
100
AcDbEntity
  8
LEVEL001
  6
Continuous
 62
     3
370
    20
100
AcDbCircle
 10
190.01522200923
 20
230.64623668676
 30
0.0
 40
9.6
100
AcDbArc
 50
180.0
 51
270.0
  0
LINE
  5
2F0
330
18
100
AcDbEntity
  8
LEVEL001
  6
Continuous
 62
     3
370
    20
100
AcDbLine
 10
180.41522200923
 20
230.64623668676
 30
0.0
 11
180.73522200923
 21
230.64623668676
 31
0.0
  0
POINT
  5
2F1
330
18
100
AcDbEntity
  8
LEVEL001
 62
     1
100
AcDbPoint
 10
193.91522200923
 20
222.04623668676
 30
0.0
  0
LINE
  5
2F2
330
18
100
AcDbEntity
  8
LEVEL001
  6
DOT
 62
     1
370
    15
100
AcDbLine
 10
196.91522200923
 20
222.04623668676
 30
0.0
 11
190.01522200923
 21
222.04623668676
 31
0.0
  0
ARC
  5
2F3
330
18
100
AcDbEntity
  8
LEVEL001
  6
DOT
 62
     1
370
    15
100
AcDbCircle
 10
190.01522200923
 20
230.64623668676
 30
0.0
 40
8.6
100
AcDbArc
 50
180.0
 51
270.0
  0
LINE
  5
2F4
330
18
100
AcDbEntity
  8
LEVEL001
  6
DOT
 62
     1
370
    15
100
AcDbLine
 10
181.21522200923
 20
233.64623668676
 30
0.0
 11
181.41522200923
 21
233.44623668676
 31
0.0
  0
LINE
  5
2F5
330
18
100
AcDbEntity
  8
LEVEL001
  6
DOT
 62
     1
370
    15
100
AcDbLine
 10
181.41522200923
 20
230.64623668676
 30
0.0
 11
181.41522200923
 21
233.44623668676
 31
0.0
  0
LINE
  5
2F6
330
18
100
AcDbEntity
  8
LEVEL001
  6
Continuous
 62
     3
370
    20
100
AcDbLine
 10
180.73522200923
 20
230.64623668676
 30
0.0
 11
196.91522200923
 21
230.64623668676
 31
0.0
  0
LINE
  5
2F7
330
18
100
AcDbEntity
  8
LEVEL001
  6
Continuous
 62
     3
370
    20
100
AcDbLine
 10
190.01522200923
 20
221.04623668676
 30
0.0
 11
196.91522200923
 21
221.04623668676
 31
0.0
  0
POINT
  5
2F8
330
18
100
AcDbEntity
  8
LEVEL001
 62
     1
100
AcDbPoint
 10
195.41522200923
 20
222.04623668676
 30
0.0
  0
ARC
  5
2F9
330
18
100
AcDbEntity
  8
LEVEL001
  6
DOT
 62
     1
370
    15
100
AcDbCircle
 10
181.66522200923
 20
226.32911959314
 30
0.0
 40
0.2
100
AcDbArc
 50
207.3398685084599
 51
0.0
  0
LINE
  5
2FA
330
18
100
AcDbEntity
  8
LEVEL001
  6
DOT
 62
     1
370
    15
100
AcDbLine
 10
181.86522200923
 20
227.86819781014
 30
0.0
 11
181.86522200923
 21
226.32911959314
 31
0.0
  0
ARC
  5
2FB
330
18
100
AcDbEntity
  8
LEVEL001
  6
DOT
 62
     1
370
    15
100
AcDbCircle
 10
189.36522200923
 20
221.26873702
 30
0.0
 40
0.2
100
AcDbArc
 50
179.99999999999
 51
266.03489359892
  0
LINE
  5
2FC
330
18
100
AcDbEntity
  8
LEVEL001
  6
DOT
 62
     1
370
    15
100
AcDbLine
 10
189.16522200923
 20
221.87027520097
 30
0.0
 11
189.16522200923
 21
221.26873702
 31
0.0
  0
ARC
  5
2FD
330
18
100
AcDbEntity
  8
LEVEL001
  6
DOT
 62
     1
370
    15
100
AcDbCircle
 10
189.36522200923
 20
221.87027520097
 30
0.0
 40
0.2
100
AcDbArc
 50
85.76406764668
 51
180.00000000001
  0
ARC
  5
2FE
330
18
100
AcDbEntity
  8
LEVEL001
  6
DOT
 62
     1
370
    15
100
AcDbCircle
 10
181.66522200923
 20
227.86819781014
 30
0.0
 40
0.2
100
AcDbArc
 50
0.0000000000651378
 51
18.402246196009
  0
POINT
  5
2FF
330
18
100
AcDbEntity
  8
LEVEL001
 62
     1
100
AcDbPoint
 10
212.41522200923
 20
233.64623668676
 30
0.0
  0
LINE
  5
300
330
18
100
AcDbEntity
  8
LEVEL001
  6
DOT
 62
     1
370
    15
100
AcDbLine
 10
196.91522200923
 20
233.64623668676
 30
0.0
 11
212.61522200923
 21
233.64623668676
 31
0.0
  0
POINT
  5
301
330
18
100
AcDbEntity
  8
LEVEL001
 62
     1
100
AcDbPoint
 10
181.41522200923
 20
233.64623668676
 30
0.0
  0
LINE
  5
302
330
18
100
AcDbEntity
  8
LEVEL001
  6
DOT
 62
     1
370
    15
100
AcDbLine
 10
196.91522200923
 20
233.64623668676
 30
0.0
 11
181.21522200923
 21
233.64623668676
 31
0.0
  0
LINE
  5
303
330
18
100
AcDbEntity
  8
LEVEL001
  6
DOT
 62
     1
370
    15
100
AcDbLine
 10
212.83884314174
 20
233.64623668676
 30
0.0
 11
212.61522200923
 21
233.64623668676
 31
0.0
  0
LINE
  5
304
330
18
100
AcDbEntity
  8
LEVEL001
  6
DOT
 62
     1
370
    15
100
AcDbLine
 10
212.83884314174
 20
233.64623668676
 30
0.0
 11
213.03884314174
 21
233.44623668676
 31
0.0
  0
POINT
  5
305
330
18
100
AcDbEntity
  8
LEVEL001
 62
     1
100
AcDbPoint
 10
213.03884314174
 20
233.64623668676
 30
0.0
  0
LINE
  5
306
330
18
100
AcDbEntity
  8
LEVEL001
  6
DOT
 62
     1
370
    15
100
AcDbLine
 10
213.09522200923
 20
230.64623668676
 30
0.0
 11
213.03884314174
 21
233.44623668676
 31
0.0
  0
LINE
  5
307
330
18
100
AcDbEntity
  8
LEVEL001
  6
DOT
 62
     1
370
    15
100
AcDbLine
 10
180.99160087672
 20
233.64623668676
 30
0.0
 11
181.21522200923
 21
233.64623668676
 31
0.0
  0
LINE
  5
308
330
18
100
AcDbEntity
  8
LEVEL001
  6
DOT
 62
     1
370
    15
100
AcDbLine
 10
180.99160087672
 20
233.64623668676
 30
0.0
 11
180.79160087672
 21
233.44623668676
 31
0.0
  0
POINT
  5
309
330
18
100
AcDbEntity
  8
LEVEL001
 62
     1
100
AcDbPoint
 10
180.79160087672
 20
233.64623668676
 30
0.0
  0
LINE
  5
30A
330
18
100
AcDbEntity
  8
LEVEL001
  6
DOT
 62
     1
370
    15
100
AcDbLine
 10
180.73522200923
 20
230.64623668676
 30
0.0
 11
180.79160087672
 21
233.44623668676
 31
0.0
  0
LINE
  5
30B
330
18
100
AcDbEntity
  8
LEVEL001
  6
Continuous
 62
     3
370
    20
100
AcDbLine
 10
180.91242385957
 20
168.34271682849
 30
0.0
 11
210.91242385957
 21
168.34271682849
 31
0.0
  0
TEXT
  5
30C
330
18
100
AcDbEntity
  8
LEVEL001
 62
     3
370
    20
100
AcDbText
 10
189.66242385957
 20
163.34271682849
 30
0.0
 40
5.0
  1
Ｓ＝１：５
 41
0.5
 72
     5
 11
202.16242385957
 21
163.34271682849
 31
0.0
100
AcDbText
  0
TEXT
  5
30D
330
18
100
AcDbEntity
  8
LEVEL001
 62
     3
370
    20
100
AcDbText
 10
183.41242385957
 20
169.34271682849
 30
0.0
 40
5.0
  1
先端部詳細
 72
     5
 11
208.41242385957
 21
169.34271682849
 31
0.0
100
AcDbText
  0
LINE
  5
30E
330
18
100
AcDbEntity
  8
LEVEL001
  6
Continuous
 62
     1
370
    15
100
AcDbLine
 10
184.64292276699
 20
236.08515654813
 30
0.0
 11
176.57539330833
 21
241.47854603029
 31
0.0
  0
CIRCLE
  5
30F
330
18
100
AcDbEntity
  8
LEVEL001
  6
Continuous
 62
     1
370
    15
100
AcDbCircle
 10
173.25005545094
 20
243.70163580226
 30
0.0
 40
4.0
  0
LINE
  5
310
330
18
100
AcDbEntity
  8
LEVEL001
  6
Continuous
 62
     1
370
    15
100
AcDbLine
 10
184.64292276699
 20
236.08515654813
 30
0.0
 11
182.59567570578
 21
238.4207400722
 31
0.0
  0
LINE
  5
311
330
18
100
AcDbEntity
  8
LEVEL001
  6
Continuous
 62
     1
370
    15
100
AcDbLine
 10
184.64292276699
 20
236.08515654813
 30
0.0
 11
181.70216304212
 21
237.08420768203
 31
0.0
  0
MTEXT
  5
312
330
18
100
AcDbEntity
  8
LEVEL001
 62
     3
370
    20
100
AcDbMText
 10
170.4216283262
 20
240.87320867752
 30
0.0
 40
5.6568542494924
 41
0.0
 71
     7
 72
     1
  1
\A1;３
 73
     1
 44
1.0
  0
LINE
  5
313
330
18
100
AcDbEntity
  8
LEVEL001
  6
Continuous
 62
     1
370
    15
100
AcDbLine
 10
187.41522200923
 20
219.04623668676
 30
0.0
 11
161.80714625184
 21
219.04623668676
 31
0.0
  0
LINE
  5
314
330
18
100
AcDbEntity
  8
LEVEL001
  6
Continuous
 62
     1
370
    15
100
AcDbLine
 10
194.91522200923
 20
248.44623668676
 30
0.0
 11
161.80714625184
 21
248.44623668676
 31
0.0
  0
LINE
  5
315
330
18
100
AcDbEntity
  8
LEVEL001
  6
Continuous
 62
     1
370
    15
100
AcDbLine
 10
163.80714625184
 20
219.04623668676
 30
0.0
 11
163.80714625184
 21
233.74623668676
 31
0.0
  0
LINE
  5
316
330
18
100
AcDbEntity
  8
LEVEL001
  6
Continuous
 62
     1
370
    15
100
AcDbLine
 10
163.80714625184
 20
248.44623668676
 30
0.0
 11
163.80714625184
 21
233.74623668676
 31
0.0
  0
LINE
  5
317
330
18
100
AcDbEntity
  8
LEVEL001
  6
Continuous
 62
     1
370
    15
100
AcDbLine
 10
163.80714625184
 20
219.04623668676
 30
0.0
 11
164.61099382913
 21
222.04623668676
 31
0.0
  0
LINE
  5
318
330
18
100
AcDbEntity
  8
LEVEL001
  6
Continuous
 62
     1
370
    15
100
AcDbLine
 10
163.80714625184
 20
219.04623668676
 30
0.0
 11
163.00329867454
 21
222.04623668676
 31
0.0
  0
LINE
  5
319
330
18
100
AcDbEntity
  8
LEVEL001
  6
Continuous
 62
     1
370
    15
100
AcDbLine
 10
163.80714625184
 20
248.44623668676
 30
0.0
 11
163.00329867454
 21
245.44623668676
 31
0.0
  0
LINE
  5
31A
330
18
100
AcDbEntity
  8
LEVEL001
  6
Continuous
 62
     1
370
    15
100
AcDbLine
 10
163.80714625184
 20
248.44623668676
 30
0.0
 11
164.61099382913
 21
245.44623668676
 31
0.0
  0
MTEXT
  5
31B
330
18
100
AcDbEntity
  8
LEVEL001
 62
     3
370
    20
100
AcDbMText
 10
162.09286053755
 20
233.74623668676
 30
0.0
 40
4.0
 41
0.0
 71
     8
 72
     1
  1
\A1;(147)
 11
0.0
 21
1.0
 31
0.0
 73
     1
 44
1.0
  0
LINE
  5
31C
330
18
100
AcDbEntity
  8
LEVEL001
  6
Continuous
 62
     1
370
    15
100
AcDbLine
 10
180.41522200923
 20
232.64623668676
 30
0.0
 11
180.41522200923
 21
261.88466412389
 31
0.0
  0
LINE
  5
31D
330
18
100
AcDbEntity
  8
LEVEL001
  6
Continuous
 62
     1
370
    15
100
AcDbLine
 10
213.41522200923
 20
232.64623668676
 30
0.0
 11
213.41522200923
 21
261.88466412389
 31
0.0
  0
LINE
  5
31E
330
18
100
AcDbEntity
  8
LEVEL001
  6
Continuous
 62
     1
370
    15
100
AcDbLine
 10
180.41522200923
 20
259.88466412389
 30
0.0
 11
196.91522200923
 21
259.88466412389
 31
0.0
  0
LINE
  5
31F
330
18
100
AcDbEntity
  8
LEVEL001
  6
Continuous
 62
     1
370
    15
100
AcDbLine
 10
213.41522200923
 20
259.88466412389
 30
0.0
 11
196.91522200923
 21
259.88466412389
 31
0.0
  0
LINE
  5
320
330
18
100
AcDbEntity
  8
LEVEL001
  6
Continuous
 62
     1
370
    15
100
AcDbLine
 10
180.41522200923
 20
259.88466412389
 30
0.0
 11
183.41522200923
 21
259.0808165466
 31
0.0
  0
LINE
  5
321
330
18
100
AcDbEntity
  8
LEVEL001
  6
Continuous
 62
     1
370
    15
100
AcDbLine
 10
180.41522200923
 20
259.88466412389
 30
0.0
 11
183.41522200923
 21
260.68851170118
 31
0.0
  0
LINE
  5
322
330
18
100
AcDbEntity
  8
LEVEL001
  6
Continuous
 62
     1
370
    15
100
AcDbLine
 10
213.41522200923
 20
259.88466412389
 30
0.0
 11
210.41522200923
 21
260.68851170118
 31
0.0
  0
LINE
  5
323
330
18
100
AcDbEntity
  8
LEVEL001
  6
Continuous
 62
     1
370
    15
100
AcDbLine
 10
213.41522200923
 20
259.88466412389
 30
0.0
 11
210.41522200923
 21
259.0808165466
 31
0.0
  0
MTEXT
  5
324
330
18
100
AcDbEntity
  8
LEVEL001
 62
     3
370
    20
100
AcDbMText
 10
196.91522200923
 20
261.59894983818
 30
0.0
 40
4.0
 41
0.0
 71
     8
 72
     1
  1
\A1;%%c165
 73
     1
 44
1.0
  0
POLYLINE
  5
325
330
18
100
AcDbEntity
  8
LEVEL001
  6
Continuous
 62
     1
370
    15
100
AcDb2dPolyline
 66
     1
 10
0.0
 20
0.0
 30
0.0
  0
VERTEX
  5
326
330
325
100
AcDbEntity
  8
LEVEL001
  6
Continuous
 62
     1
100
AcDbVertex
100
AcDb2dVertex
 10
182.16522200923
 20
209.4
 30
0.0
  0
VERTEX
  5
327
330
325
100
AcDbEntity
  8
LEVEL001
  6
Continuous
 62
     1
100
AcDbVertex
100
AcDb2dVertex
 10
175.32349582835
 20
198.48955242935
 30
0.0
  0
VERTEX
  5
328
330
325
100
AcDbEntity
  8
LEVEL001
  6
Continuous
 62
     1
100
AcDbVertex
100
AcDb2dVertex
 10
157.35300224395
 20
198.48955242935
 30
0.0
  0
SEQEND
  5
329
330
325
100
AcDbEntity
  8
LEVEL001
  6
Continuous
 62
     1
  0
LINE
  5
32A
330
18
100
AcDbEntity
  8
LEVEL001
  6
Continuous
 62
     1
370
    15
100
AcDbLine
 10
182.16522200923
 20
209.4
 30
0.0
 11
179.89040103555
 21
207.2854408343
 31
0.0
  0
LINE
  5
32B
330
18
100
AcDbEntity
  8
LEVEL001
  6
Continuous
 62
     1
370
    15
100
AcDbLine
 10
182.16522200923
 20
209.4
 30
0.0
 11
181.25244883981
 21
206.43132755786
 31
0.0
  0
MTEXT
  5
32C
102
{ACAD_REACTORS
330
32B
102
}
330
18
100
AcDbEntity
  8
LEVEL001
 62
     3
370
    20
100
AcDbMText
 10
157.35300224395
 20
199.46751153301
 30
0.0
 40
4.0
 41
0.0
 71
     4
 72
     1
  1
\A1;%%c８ロープ\P　３１ｍ
 73
     1
 44
1.0
  0
LINE
  5
32D
330
18
100
AcDbEntity
  8
LEVEL001
  6
Continuous
 62
     3
370
    20
100
AcDbLine
 10
178.71151698717
 20
126.48147126784
 30
0.0
 11
178.71151698717
 21
66.481471267841
 31
0.0
  0
ARC
  5
32E
330
18
100
AcDbEntity
  8
LEVEL001
  6
Continuous
 62
     3
370
    20
100
AcDbCircle
 10
188.71151698717
 20
143.80197934353
 30
0.0
 40
20.0
100
AcDbArc
 50
240.0
 51
300.0
  0
ARC
  5
32F
330
18
100
AcDbEntity
  8
LEVEL001
  6
Continuous
 62
     3
370
    20
100
AcDbCircle
 10
188.71151698717
 20
109.16096319215
 30
0.0
 40
20.0
100
AcDbArc
 50
60.0
 51
120.0
  0
ARC
  5
330
330
18
100
AcDbEntity
  8
LEVEL001
  6
Continuous
 62
     3
370
    20
100
AcDbCircle
 10
188.71151698717
 20
109.16096319215
 30
0.0
 40
18.2
100
AcDbArc
 50
63.78531969490101
 51
116.2146803051
  0
ARC
  5
331
330
18
100
AcDbEntity
  8
LEVEL001
  6
Continuous
 62
     3
370
    20
100
AcDbCircle
 10
188.71151698717
 20
109.16096319215
 30
0.0
 40
19.1
100
AcDbArc
 50
61.67132915457
 51
118.32867084543
  0
ARC
  5
332
330
18
100
AcDbEntity
  8
LEVEL001
  6
Continuous
 62
     3
370
    20
100
AcDbCircle
 10
208.71151698717
 20
109.16096319215
 30
0.0
 40
20.0
100
AcDbArc
 50
60.0
 51
120.0
  0
ARC
  5
333
330
18
100
AcDbEntity
  8
LEVEL001
  6
Continuous
 62
     3
370
    20
100
AcDbCircle
 10
188.71151698717
 20
83.80197934353
 30
0.0
 40
20.0
100
AcDbArc
 50
240.0
 51
300.0
  0
ARC
  5
334
330
18
100
AcDbEntity
  8
LEVEL001
  6
Continuous
 62
     3
370
    20
100
AcDbCircle
 10
208.71151698717
 20
49.160963192152
 30
0.0
 40
20.0
100
AcDbArc
 50
60.0
 51
120.0
  0
ARC
  5
335
330
18
100
AcDbEntity
  8
LEVEL001
  6
Continuous
 62
     3
370
    20
100
AcDbCircle
 10
208.71151698717
 20
83.80197934353
 30
0.0
 40
20.0
100
AcDbArc
 50
240.0
 51
300.0
  0
ARC
  5
336
330
18
100
AcDbEntity
  8
LEVEL001
  6
Continuous
 62
     3
370
    20
100
AcDbCircle
 10
208.71151698717
 20
83.80197934353
 30
0.0
 40
18.2
100
AcDbArc
 50
243.7853196949
 51
296.2146803051
  0
ARC
  5
337
330
18
100
AcDbEntity
  8
LEVEL001
  6
Continuous
 62
     3
370
    20
100
AcDbCircle
 10
208.71151698717
 20
83.80197934353
 30
0.0
 40
19.1
100
AcDbArc
 50
241.67132915457
 51
298.32867084543
  0
LINE
  5
338
330
18
100
AcDbEntity
  8
LEVEL001
  6
Continuous
 62
     3
370
    20
100
AcDbLine
 10
178.71151698717
 20
126.48147126784
 30
0.0
 11
178.71151698717
 21
66.481471267841
 31
0.0
  0
LINE
  5
339
330
18
100
AcDbEntity
  8
LEVEL001
  6
Continuous
 62
     3
370
    20
100
AcDbLine
 10
218.71151698717
 20
126.48147126784
 30
0.0
 11
218.71151698717
 21
66.481471267841
 31
0.0
  0
POLYLINE
  5
33A
330
18
100
AcDbEntity
  8
LEVEL001
  6
Continuous
 62
     1
370
    15
100
AcDb2dPolyline
 66
     1
 10
0.0
 20
0.0
 30
0.0
  0
VERTEX
  5
33B
330
33A
100
AcDbEntity
  8
LEVEL001
  6
Continuous
 62
     1
100
AcDbVertex
100
AcDb2dVertex
 10
177.41078888758
 20
112.28147126784
 30
0.0
  0
VERTEX
  5
33C
330
33A
100
AcDbEntity
  8
LEVEL001
  6
Continuous
 62
     1
100
AcDbVertex
100
AcDb2dVertex
 10
163.98720915313
 20
121.96549731597
 30
0.0
  0
VERTEX
  5
33D
330
33A
100
AcDbEntity
  8
LEVEL001
  6
Continuous
 62
     1
100
AcDbVertex
100
AcDb2dVertex
 10
135.98720915313
 20
121.96549731597
 30
0.0
  0
SEQEND
  5
33E
330
33A
100
AcDbEntity
  8
LEVEL001
  6
Continuous
 62
     1
  0
LINE
  5
33F
330
18
100
AcDbEntity
  8
LEVEL001
  6
Continuous
 62
     1
370
    15
100
AcDbLine
 10
177.41078888758
 20
112.28147126784
 30
0.0
 11
175.44812502104
 21
114.68856941177
 31
0.0
  0
LINE
  5
340
330
18
100
AcDbEntity
  8
LEVEL001
  6
Continuous
 62
     1
370
    15
100
AcDbLine
 10
177.41078888758
 20
112.28147126784
 30
0.0
 11
174.5075230481
 21
113.38474747662
 31
0.0
  0
MTEXT
  5
341
102
{ACAD_REACTORS
330
340
102
}
330
18
100
AcDbEntity
  8
LEVEL001
 62
     3
370
    20
100
AcDbMText
 10
135.98720915313
 20
123.67978303025
 30
0.0
 40
4.0
 41
0.0
 71
     7
 72
     1
  1
\A1;２－Ｍ６ナベビス
 73
     1
 44
1.0
  0
LINE
  5
342
330
18
100
AcDbEntity
  8
LEVEL001
  6
Continuous
 62
     1
370
    15
100
AcDbLine
 10
169.71151698717
 20
106.48147126784
 30
0.0
 11
169.71151698717
 21
124.13686997508
 31
0.0
  0
LINE
  5
343
330
18
100
AcDbEntity
  8
LEVEL001
  6
Continuous
 62
     1
370
    15
100
AcDbLine
 10
169.71151698717
 20
122.13686997508
 30
0.0
 11
174.21151698717
 21
122.13686997508
 31
0.0
  0
LINE
  5
344
330
18
100
AcDbEntity
  8
LEVEL001
  6
Continuous
 62
     1
370
    15
100
AcDbLine
 10
178.71151698717
 20
122.13686997508
 30
0.0
 11
174.21151698717
 21
122.13686997508
 31
0.0
  0
LINE
  5
345
330
18
100
AcDbEntity
  8
LEVEL001
  6
Continuous
 62
     1
370
    15
100
AcDbLine
 10
169.71151698717
 20
122.13686997508
 30
0.0
 11
172.71151698717
 21
121.33302239779
 31
0.0
  0
LINE
  5
346
330
18
100
AcDbEntity
  8
LEVEL001
  6
Continuous
 62
     1
370
    15
100
AcDbLine
 10
169.71151698717
 20
122.13686997508
 30
0.0
 11
172.71151698717
 21
122.94071755237
 31
0.0
  0
LINE
  5
347
330
18
100
AcDbEntity
  8
LEVEL001
  6
Continuous
 62
     1
370
    15
100
AcDbLine
 10
178.71151698717
 20
122.13686997508
 30
0.0
 11
175.71151698717
 21
122.94071755237
 31
0.0
  0
LINE
  5
348
330
18
100
AcDbEntity
  8
LEVEL001
  6
Continuous
 62
     1
370
    15
100
AcDbLine
 10
178.71151698717
 20
122.13686997508
 30
0.0
 11
175.71151698717
 21
121.33302239779
 31
0.0
  0
MTEXT
  5
349
330
18
100
AcDbEntity
  8
LEVEL001
 62
     3
370
    20
100
AcDbMText
 10
174.21151698717
 20
123.85115568937
 30
0.0
 40
4.0
 41
0.0
 71
     8
 72
     1
  1
\A1;(45)
 73
     1
 44
1.0
  0
LINE
  5
34A
330
18
100
AcDbEntity
  8
LEVEL001
  6
Continuous
 62
     3
370
    20
100
AcDbLine
 10
174.06151698717
 20
97.481471267841
 30
0.0
 11
175.36151698717
 21
97.481471267841
 31
0.0
  0
LINE
  5
34B
330
18
100
AcDbEntity
  8
LEVEL001
  6
Continuous
 62
     3
370
    20
100
AcDbLine
 10
173.73445974434
 20
102.93242531498
 30
0.0
 11
174.06151698717
 21
97.481471267841
 31
0.0
  0
LINE
  5
34C
330
18
100
AcDbEntity
  8
LEVEL001
  6
Continuous
 62
     3
370
    20
100
AcDbLine
 10
177.61151698717
 20
102.88147126784
 30
0.0
 11
177.61151698717
 21
96.481471267841
 31
0.0
  0
LINE
  5
34D
330
18
100
AcDbEntity
  8
LEVEL001
  6
Continuous
 62
     3
370
    20
100
AcDbLine
 10
177.61151698717
 20
90.081471267841
 30
0.0
 11
177.61151698717
 21
96.481471267841
 31
0.0
  0
LINE
  5
34E
330
18
100
AcDbEntity
  8
LEVEL001
  6
Continuous
 62
     3
370
    20
100
AcDbLine
 10
178.71151698717
 20
108.48147126784
 30
0.0
 11
177.61151698717
 21
102.88147126784
 31
0.0
  0
LINE
  5
34F
330
18
100
AcDbEntity
  8
LEVEL001
  6
Continuous
 62
     3
370
    20
100
AcDbLine
 10
178.71151698717
 20
84.481471267841
 30
0.0
 11
177.61151698717
 21
90.081471267841
 31
0.0
  0
ARC
  5
350
330
18
100
AcDbEntity
  8
LEVEL001
  6
Continuous
 62
     3
370
    20
100
AcDbCircle
 10
176.74198527712
 20
106.9267700885
 30
0.0
 40
5.0
100
AcDbArc
 50
180.0
 51
233.02223081455
  0
LINE
  5
351
330
18
100
AcDbEntity
  8
LEVEL001
  6
HIDDEN
 62
     1
370
    15
100
AcDbLine
 10
178.21078888758
 20
80.051471267841
 30
0.0
 11
178.71151698717
 21
80.051471267841
 31
0.0
  0
LINE
  5
352
330
18
100
AcDbEntity
  8
LEVEL001
  6
HIDDEN
 62
     1
370
    15
100
AcDbLine
 10
178.21078888758
 20
80.051471267841
 30
0.0
 11
178.21078888758
 21
79.581471267841
 31
0.0
  0
LINE
  5
353
330
18
100
AcDbEntity
  8
LEVEL001
  6
HIDDEN
 62
     1
370
    15
100
AcDbLine
 10
178.21078888758
 20
81.781471267841
 30
0.0
 11
178.21078888758
 21
81.311471267841
 31
0.0
  0
LINE
  5
354
330
18
100
AcDbEntity
  8
LEVEL001
  6
HIDDEN
 62
     1
370
    15
100
AcDbLine
 10
178.21078888758
 20
81.311471267841
 30
0.0
 11
178.71151698717
 21
81.311471267841
 31
0.0
  0
LINE
  5
355
330
18
100
AcDbEntity
  8
LEVEL001
  6
Continuous
 62
     3
370
    20
100
AcDbLine
 10
171.71385611045
 20
110.46533809798
 30
0.0
 11
171.74198527712
 21
106.9267700885
 31
0.0
  0
LINE
  5
356
330
18
100
AcDbEntity
  8
LEVEL001
  6
DOT
 62
     1
370
    15
100
AcDbLine
 10
178.01078888758
 20
79.631471267841
 30
0.0
 11
178.21078888758
 21
79.631471267841
 31
0.0
  0
LINE
  5
357
330
18
100
AcDbEntity
  8
LEVEL001
  6
DOT
 62
     1
370
    15
100
AcDbLine
 10
178.21078888758
 20
81.731471267841
 30
0.0
 11
178.21078888758
 21
79.631471267841
 31
0.0
  0
LINE
  5
358
330
18
100
AcDbEntity
  8
LEVEL001
  6
DOT
 62
     1
370
    15
100
AcDbLine
 10
178.01078888758
 20
81.731471267841
 30
0.0
 11
178.21078888758
 21
81.731471267841
 31
0.0
  0
LINE
  5
359
330
18
100
AcDbEntity
  8
LEVEL001
  6
Continuous
 62
     3
370
    20
100
AcDbLine
 10
177.41078888758
 20
80.231471267841
 30
0.0
 11
177.41078888758
 21
81.131471267841
 31
0.0
  0
LINE
  5
35A
330
18
100
AcDbEntity
  8
LEVEL001
  6
Continuous
 62
     3
370
    20
100
AcDbLine
 10
178.71151698717
 20
78.381471267841
 30
0.0
 11
178.71151698717
 21
84.481471267841
 31
0.0
  0
ARC
  5
35B
330
18
100
AcDbEntity
  8
LEVEL001
  6
Continuous
 62
     3
370
    20
100
AcDbCircle
 10
183.62300283036
 20
83.9137083942
 30
0.0
 40
12.0
100
AcDbArc
 50
142.92793628941
 51
187.12650048794
  0
LINE
  5
35C
330
18
100
AcDbEntity
  8
LEVEL001
  6
HIDDEN
 62
     1
370
    15
100
AcDbLine
 10
178.21078888758
 20
112.91147126784
 30
0.0
 11
178.71151698717
 21
112.91147126784
 31
0.0
  0
LINE
  5
35D
330
18
100
AcDbEntity
  8
LEVEL001
  6
HIDDEN
 62
     1
370
    15
100
AcDbLine
 10
178.21078888758
 20
112.91147126784
 30
0.0
 11
178.21078888758
 21
113.38147126784
 31
0.0
  0
LINE
  5
35E
330
18
100
AcDbEntity
  8
LEVEL001
  6
HIDDEN
 62
     1
370
    15
100
AcDbLine
 10
178.21078888758
 20
111.18147126784
 30
0.0
 11
178.21078888758
 21
111.65147126784
 31
0.0
  0
LINE
  5
35F
330
18
100
AcDbEntity
  8
LEVEL001
  6
HIDDEN
 62
     1
370
    15
100
AcDbLine
 10
178.21078888758
 20
111.65147126784
 30
0.0
 11
178.71151698717
 21
111.65147126784
 31
0.0
  0
LINE
  5
360
330
18
100
AcDbEntity
  8
LEVEL001
  6
DOT
 62
     1
370
    15
100
AcDbLine
 10
178.01078888758
 20
113.33147126784
 30
0.0
 11
178.21078888758
 21
113.33147126784
 31
0.0
  0
LINE
  5
361
330
18
100
AcDbEntity
  8
LEVEL001
  6
DOT
 62
     1
370
    15
100
AcDbLine
 10
178.21078888758
 20
111.23147126784
 30
0.0
 11
178.21078888758
 21
113.33147126784
 31
0.0
  0
LINE
  5
362
330
18
100
AcDbEntity
  8
LEVEL001
  6
DOT
 62
     1
370
    15
100
AcDbLine
 10
178.01078888758
 20
111.23147126784
 30
0.0
 11
178.21078888758
 21
111.23147126784
 31
0.0
  0
LINE
  5
363
330
18
100
AcDbEntity
  8
LEVEL001
  6
Continuous
 62
     3
370
    20
100
AcDbLine
 10
177.41078888758
 20
112.73147126784
 30
0.0
 11
177.41078888758
 21
111.83147126784
 31
0.0
  0
LINE
  5
364
330
18
100
AcDbEntity
  8
LEVEL001
  6
Continuous
 62
     3
370
    20
100
AcDbLine
 10
178.71151698717
 20
114.58147126784
 30
0.0
 11
178.71151698717
 21
108.48147126784
 31
0.0
  0
LWPOLYLINE
  5
365
330
18
100
AcDbEntity
  8
LEVEL001
  6
Continuous
 62
     3
370
    20
100
AcDbPolyline
 90
       65
 70
     0
 43
0.0
 10
170.86360001271
 20
109.51179735837
 10
170.84349350173
 20
109.05636601867
 10
170.82345556791
 20
108.60131199565
 10
170.80355478843
 20
108.14701260599
 10
170.78385974046
 20
107.69384516639
 10
170.76443900116
 20
107.24218699352
 10
170.74536114771
 20
106.79241540406
 10
170.72669475726
 20
106.34490771471
 10
170.708508407
 20
105.90004124214
 10
170.69087067409
 20
105.45819330304
 10
170.6738501357
 20
105.01974121408
 10
170.657515369
 20
104.58506229197
 10
170.64193495116
 20
104.15453385337
 10
170.62717745934
 20
103.72853321498
 10
170.61331147073
 20
103.30743769347
 10
170.60040556247
 20
102.89162460553
 10
170.58852831176
 20
102.48147126784
 10
170.57772873411
 20
102.07722922486
 10
170.56797759851
 20
101.67864693214
 10
170.5592261123
 20
101.28534707299
 10
170.55142548282
 20
100.89695233072
 10
170.54452691743
 20
100.51308538866
 10
170.53848162345
 20
100.13336893011
 10
170.53324080823
 20
99.757425638402
 10
170.52875567913
 20
99.384878196845
 10
170.52497744346
 20
99.015349288757
 10
170.5218573086
 20
98.648461597454
 10
170.51934648186
 20
98.283837806253
 10
170.5173961706
 20
97.921100598469
 10
170.51595758216
 20
97.55987265742
 10
170.51498192389
 20
97.199776666421
 10
170.51442040312
 20
96.840435308789
 10
170.5142242272
 20
96.481471267841
 10
170.5143608571
 20
96.122507226892
 10
170.51486276833
 20
95.76316586926
 10
170.51577869001
 20
95.403069878261
 10
170.51715735129
 20
95.04184193721
 10
170.51904748129
 20
94.679104729425
 10
170.52149780916
 20
94.314480938222
 10
170.52455706403
 20
93.947593246918
 10
170.52827397502
 20
93.578064338829
 10
170.53269727128
 20
93.205516897272
 10
170.53787568193
 20
92.829573605562
 10
170.54385793612
 20
92.449857147018
 10
170.55069276298
 20
92.065990204954
 10
170.55842889163
 20
91.677595462688
 10
170.56711505123
 20
91.284295603536
 10
170.57679997089
 20
90.885713310815
 10
170.58753237975
 20
90.481471267841
 10
170.59934146649
 20
90.071317930158
 10
170.61217825793
 20
89.655504842223
 10
170.6259742404
 20
89.234409320718
 10
170.64066090028
 20
88.808408682328
 10
170.65616972391
 20
88.377880243735
 10
170.67243219765
 20
87.943201321624
 10
170.68937980786
 20
87.504749232677
 10
170.70694404087
 20
87.062901293579
 10
170.72505638306
 20
86.618034821013
 10
170.74364832077
 20
86.170527131662
 10
170.76265134035
 20
85.72075554221
 10
170.78199692817
 20
85.269097369341
 10
170.80161657057
 20
84.815929929737
 10
170.82144175391
 20
84.361630540083
 10
170.84140396454
 20
83.906576517062
 10
170.86143468882
 20
83.451145177357
  0
LWPOLYLINE
  5
366
330
18
100
AcDbEntity
  8
LEVEL001
  6
Continuous
 62
     3
370
    20
100
AcDbPolyline
 90
       65
 70
     0
 43
0.0
 10
171.66089277268
 20
109.51179735837
 10
171.64082424065
 20
109.05563653939
 10
171.62082339218
 20
108.59987020132
 10
171.60095791079
 20
108.14489282504
 10
171.58129548004
 20
107.69109889147
 10
171.56190378347
 20
107.23888288151
 10
171.54285050464
 20
106.78863927605
 10
171.52420332708
 20
106.340762556
 10
171.50602993434
 20
105.89564720227
 10
171.48839800998
 20
105.45368769575
 10
171.47137523753
 20
105.01527851734
 10
171.45502930055
 20
104.58081414795
 10
171.43942788258
 20
104.15068906849
 10
171.42463866716
 20
103.72529775984
 10
171.41072933785
 20
103.30503470291
 10
171.39776757819
 20
102.89029437861
 10
171.38582107173
 20
102.48147126784
 10
171.37493883399
 20
102.07881691505
 10
171.36509520846
 20
101.68201111891
 10
171.35624587058
 20
101.29059074166
 10
171.34834649582
 20
100.90409264551
 10
171.34135275962
 20
100.52205369268
 10
171.33522033745
 20
100.14401074542
 10
171.32990490475
 20
99.769500665932
 10
171.32536213699
 20
99.398060316452
 10
171.32154770961
 20
99.029226559203
 10
171.31841729809
 20
98.662536256409
 10
171.31592657786
 20
98.297526270297
 10
171.31403122439
 20
97.933733463092
 10
171.31268691313
 20
97.570694697018
 10
171.31184931953
 20
97.207946834302
 10
171.31147411906
 20
96.845026737168
 10
171.31151698717
 20
96.481471267841
 10
171.31194627845
 20
96.11688594542
 10
171.31278106407
 20
95.751150916494
 10
171.31405309434
 20
95.384214984526
 10
171.31579411955
 20
95.01602695298
 10
171.31803589003
 20
94.646535625319
 10
171.32081015607
 20
94.275689805005
 10
171.32414866797
 20
93.903438295501
 10
171.32808317605
 20
93.529729900271
 10
171.33264543062
 20
93.154513422778
 10
171.33786718196
 20
92.777737666484
 10
171.34378018041
 20
92.399351434853
 10
171.35041617625
 20
92.019303531347
 10
171.35780691979
 20
91.63754275943
 10
171.36598416135
 20
91.254017922565
 10
171.37497965123
 20
90.868677824214
 10
171.38482513972
 20
90.481471267841
 10
171.39553790055
 20
90.092375565233
 10
171.40707730099
 20
89.701482061476
 10
171.41938823175
 20
89.308910609979
 10
171.43241558352
 20
88.914781064154
 10
171.44610424698
 20
88.519213277409
 10
171.46039911283
 20
88.122327103154
 10
171.47524507176
 20
87.7242423948
 10
171.49058701446
 20
87.325079005756
 10
171.50636983163
 20
86.924956789433
 10
171.52253841396
 20
86.52399559924
 10
171.53903765213
 20
86.122315288588
 10
171.55581243685
 20
85.720035710886
 10
171.57280765879
 20
85.317276719544
 10
171.58996820866
 20
84.914158167972
 10
171.60723897715
 20
84.51079990958
 10
171.62456485495
 20
84.107321797778
  0
POINT
  5
367
330
18
100
AcDbEntity
  8
LEVEL001
 62
     2
100
AcDbPoint
 10
178.71151698717
 20
96.481471267841
 30
0.0
  0
ARC
  5
368
330
18
100
AcDbEntity
  8
LEVEL001
  6
Continuous
 62
     3
370
    20
100
AcDbCircle
 10
171.31656335045
 20
82.451145177324
 30
0.0
 40
0.4
100
AcDbArc
 50
189.81802439684
 51
356.24988759824
  0
ARC
  5
369
330
18
100
AcDbEntity
  8
LEVEL001
  6
Continuous
 62
     3
370
    20
100
AcDbCircle
 10
171.31656335048
 20
110.51179735837
 30
0.0
 40
0.4
100
AcDbArc
 50
353.33014694041
 51
170.18197560322
  0
LWPOLYLINE
  5
36A
330
18
100
AcDbEntity
  8
LEVEL001
  6
Continuous
 62
     3
370
    20
100
AcDbPolyline
 90
      161
 70
     0
 43
0.0
 10
170.92242162873
 20
110.58000515251
 10
170.90359341384
 20
110.46388413723
 10
170.88472834927
 20
110.34740930188
 10
170.86578958534
 20
110.23022682642
 10
170.84674027237
 20
110.11198289078
 10
170.82754356069
 20
109.9923236749
 10
170.80816260061
 20
109.87089535873
 10
170.78856054247
 20
109.7473441222
 10
170.76870053658
 20
109.62131614526
 10
170.74854573326
 20
109.49245760785
 10
170.72805928285
 20
109.36041468991
 10
170.70720433566
 20
109.22483357138
 10
170.68594404202
 20
109.08536043221
 10
170.66424155224
 20
108.94164145233
 10
170.64206001666
 20
108.79332281168
 10
170.61936258558
 20
108.64005069021
 10
170.59611240935
 20
108.48147126786
 10
170.57229313406
 20
108.31736446013
 10
170.54797038894
 20
108.14804512475
 10
170.52323029903
 20
107.97396185501
 10
170.49815898933
 20
107.7955632442
 10
170.47284258485
 20
107.6132978856
 10
170.44736721063
 20
107.4276143725
 10
170.42181899167
 20
107.2389612982
 10
170.39628405299
 20
107.04778725598
 10
170.3708485196
 20
106.85454083914
 10
170.34559851653
 20
106.65967064095
 10
170.3206201688
 20
106.46362525471
 10
170.29599960141
 20
106.26685327371
 10
170.27182293939
 20
106.06980329123
 10
170.24817630774
 20
105.87292390057
 10
170.2251458315
 20
105.67666369501
 10
170.20281763568
 20
105.48147126784
 10
170.18125840879
 20
105.28770043912
 10
170.16045709342
 20
105.095325936
 10
170.14038319563
 20
104.90422771236
 10
170.12100622151
 20
104.71428572214
 10
170.10229567713
 20
104.52537991923
 10
170.08422106857
 20
104.33739025754
 10
170.06675190191
 20
104.15019669098
 10
170.04985768322
 20
103.96367917347
 10
170.03350791859
 20
103.7777176589
 10
170.0176721141
 20
103.59219210119
 10
170.00231977581
 20
103.40698245425
 10
169.98742040982
 20
103.22196867198
 10
169.97294352218
 20
103.0370307083
 10
169.958858619
 20
102.85204851711
 10
169.94513520633
 20
102.66690205232
 10
169.93174279027
 20
102.48147126784
 10
169.91865780195
 20
102.29566139044
 10
169.90588437276
 20
102.10947873834
 10
169.89343355914
 20
101.92295490261
 10
169.88131641756
 20
101.73612147432
 10
169.86954400445
 20
101.54901004456
 10
169.85812737628
 20
101.36165220441
 10
169.84707758949
 20
101.17407954493
 10
169.83640570052
 20
100.98632365721
 10
169.82612276584
 20
100.79841613232
 10
169.81623984188
 20
100.61038856134
 10
169.80676798511
 20
100.42227253535
 10
169.79771825197
 20
100.23409964542
 10
169.78910169891
 20
100.04590148262
 10
169.78092938238
 20
99.857709638044
 10
169.77321235883
 20
99.669555702758
 10
169.76596168471
 20
99.481471267841
 10
169.75918576035
 20
99.293481606153
 10
169.75288236156
 20
99.105586717696
 10
169.74704660801
 20
98.917780284253
 10
169.74167361941
 20
98.730055987609
 10
169.73675851543
 20
98.542407509549
 10
169.73229641576
 20
98.354828531857
 10
169.72828244009
 20
98.167312736319
 10
169.72471170811
 20
97.979853804718
 10
169.72157933949
 20
97.792445418841
 10
169.71888045393
 20
97.60508126047
 10
169.71661017111
 20
97.417755011391
 10
169.71476361072
 20
97.230460353389
 10
169.71333589245
 20
97.043190968248
 10
169.71232213597
 20
96.855940537754
 10
169.71171746098
 20
96.668702743689
 10
169.71151698717
 20
96.481471267841
 10
169.71171746098
 20
96.294239791992
 10
169.71232213597
 20
96.107001997928
 10
169.71333589244
 20
95.919751567433
 10
169.71476361072
 20
95.732482182292
 10
169.7166101711
 20
95.545187524291
 10
169.71888045392
 20
95.357861275212
 10
169.72157933948
 20
95.170497116842
 10
169.72471170809
 20
94.983088730964
 10
169.72828244008
 20
94.795629799364
 10
169.73229641575
 20
94.608114003826
 10
169.73675851542
 20
94.420535026135
 10
169.7416736194
 20
94.232886548074
 10
169.747046608
 20
94.04516225143
 10
169.75288236155
 20
93.857355817987
 10
169.75918576034
 20
93.669460929529
 10
169.76596168471
 20
93.481471267841
 10
169.77321235883
 20
93.293386832923
 10
169.78092938238
 20
93.105232897636
 10
169.78910169891
 20
92.917041053057
 10
169.79771825197
 20
92.728842890263
 10
169.80676798512
 20
92.54067000033
 10
169.81623984189
 20
92.352553974335
 10
169.82612276584
 20
92.164526403354
 10
169.83640570052
 20
91.976618878465
 10
169.84707758949
 20
91.788862990744
 10
169.85812737628
 20
91.601290331268
 10
169.86954400445
 20
91.413932491112
 10
169.88131641755
 20
91.226821061355
 10
169.89343355913
 20
91.039987633073
 10
169.90588437274
 20
90.853463797342
 10
169.91865780193
 20
90.667281145239
 10
169.93174279025
 20
90.481471267841
 10
169.94513520631
 20
90.296040483363
 10
169.95885861896
 20
90.110894018575
 10
169.97294352215
 20
89.925911827385
 10
169.98742040977
 20
89.740973863703
 10
170.00231977577
 20
89.555960081437
 10
170.01767211405
 20
89.370750434496
 10
170.03350791854
 20
89.185224876788
 10
170.04985768317
 20
88.999263362222
 10
170.06675190185
 20
88.812745844707
 10
170.08422106852
 20
88.62555227815
 10
170.10229567708
 20
88.437562616462
 10
170.12100622146
 20
88.24865681355
 10
170.14038319559
 20
88.058714823323
 10
170.16045709338
 20
87.867616599691
 10
170.18125840877
 20
87.67524209656
 10
170.20281763566
 20
87.481471267841
 10
170.2251458315
 20
87.286278840671
 10
170.24817630775
 20
87.09001863511
 10
170.2718229394
 20
86.893139244446
 10
170.29599960143
 20
86.696089261968
 10
170.32062016883
 20
86.499317280965
 10
170.34559851657
 20
86.303271894725
 10
170.37084851965
 20
86.108401696538
 10
170.39628405304
 20
85.915155279691
 10
170.42181899172
 20
85.723981237474
 10
170.44736721068
 20
85.535328163175
 10
170.47284258491
 20
85.349644650084
 10
170.49815898938
 20
85.167379291489
 10
170.52323029907
 20
84.988980680678
 10
170.54797038898
 20
84.81489741094
 10
170.57229313408
 20
84.645578075565
 10
170.59611240936
 20
84.481471267841
 10
170.61936258558
 20
84.322891845498
 10
170.64206001663
 20
84.169619724037
 10
170.6642415522
 20
84.021301083397
 10
170.68594404197
 20
83.877582103521
 10
170.7072043356
 20
83.73810896435
 10
170.72805928278
 20
83.602527845825
 10
170.74854573318
 20
83.470484927887
 10
170.76870053648
 20
83.341626390477
 10
170.78856054237
 20
83.215598413538
 10
170.80816260051
 20
83.092047177009
 10
170.82754356059
 20
82.970618860833
 10
170.84674027228
 20
82.850959644951
 10
170.86578958526
 20
82.732715709303
 10
170.8847283492
 20
82.615533233832
 10
170.9035934138
 20
82.499058398478
 10
170.92242162871
 20
82.382937383183
  0
ARC
  5
36B
330
18
100
AcDbEntity
  8
LEVEL001
  6
Continuous
 62
     3
370
    20
100
AcDbCircle
 10
174.68676983184
 20
90.665281529111
 30
0.0
 40
0.8
100
AcDbArc
 50
21.936801848504
 51
142.9279362894
  0
LINE
  5
36C
330
18
100
AcDbEntity
  8
LEVEL001
  6
Continuous
 62
     3
370
    20
100
AcDbLine
 10
175.66941466217
 20
102.6130991846
 30
0.0
 11
175.36151698717
 21
97.481471267841
 31
0.0
  0
LINE
  5
36D
330
18
100
AcDbEntity
  8
LEVEL001
  6
HIDDEN
 62
     1
370
    15
100
AcDbLine
 10
177.88241362727
 20
113.38147126784
 30
0.0
 11
178.21078888758
 21
113.38147126784
 31
0.0
  0
ARC
  5
36E
330
18
100
AcDbEntity
  8
LEVEL001
  6
DOT
 62
     1
370
    15
100
AcDbCircle
 10
178.01078888757
 20
112.73147126784
 30
0.0
 40
0.6
100
AcDbArc
 50
89.99999999959802
 51
102.62388350062
  0
ARC
  5
36F
330
18
100
AcDbEntity
  8
LEVEL001
  6
DOT
 62
     1
370
    15
100
AcDbCircle
 10
178.01078888759
 20
111.83147126784
 30
0.0
 40
0.6
100
AcDbArc
 50
242.30847316514
 51
269.99999999869
  0
LINE
  5
370
330
18
100
AcDbEntity
  8
LEVEL001
  6
HIDDEN
 62
     1
370
    15
100
AcDbLine
 10
177.71953126685
 20
111.18147126784
 30
0.0
 11
178.21078888758
 21
111.18147126784
 31
0.0
  0
ARC
  5
371
330
18
100
AcDbEntity
  8
LEVEL001
  6
Continuous
 62
     3
370
    20
100
AcDbCircle
 10
178.01078888758
 20
111.83147126785
 30
0.0
 40
0.6
100
AcDbArc
 50
180.00000000059
 51
242.30847316659
  0
ARC
  5
372
330
18
100
AcDbEntity
  8
LEVEL001
  6
Continuous
 62
     3
370
    20
100
AcDbCircle
 10
178.01078888758
 20
112.73147126784
 30
0.0
 40
0.6
100
AcDbArc
 50
102.62388350104
 51
180.00000000009
  0
LINE
  5
373
330
18
100
AcDbEntity
  8
LEVEL001
  6
HIDDEN
 62
     1
370
    15
100
AcDbLine
 10
177.71953126685
 20
81.781471267841
 30
0.0
 11
178.21078888758
 21
81.781471267841
 31
0.0
  0
ARC
  5
374
330
18
100
AcDbEntity
  8
LEVEL001
  6
DOT
 62
     1
370
    15
100
AcDbCircle
 10
178.01078888759
 20
81.131471267841
 30
0.0
 40
0.6
100
AcDbArc
 50
90.000000001303
 51
117.69152683485
  0
ARC
  5
375
330
18
100
AcDbEntity
  8
LEVEL001
  6
DOT
 62
     1
370
    15
100
AcDbCircle
 10
178.01078888757
 20
80.231471267841
 30
0.0
 40
0.6
100
AcDbArc
 50
257.37611649929
 51
270.00000000035
  0
LINE
  5
376
330
18
100
AcDbEntity
  8
LEVEL001
  6
HIDDEN
 62
     1
370
    15
100
AcDbLine
 10
177.88241362727
 20
79.581471267841
 30
0.0
 11
178.21078888758
 21
79.581471267841
 31
0.0
  0
ARC
  5
377
330
18
100
AcDbEntity
  8
LEVEL001
  6
Continuous
 62
     3
370
    20
100
AcDbCircle
 10
178.01078888758
 20
80.231471267841
 30
0.0
 40
0.6
100
AcDbArc
 50
179.99999999993
 51
257.37611649896
  0
ARC
  5
378
330
18
100
AcDbEntity
  8
LEVEL001
  6
Continuous
 62
     3
370
    20
100
AcDbCircle
 10
178.01078888758
 20
81.131471267835
 30
0.0
 40
0.6
100
AcDbArc
 50
117.69152683341
 51
179.99999999941
  0
ARC
  5
379
330
18
100
AcDbEntity
  8
LEVEL001
  6
Continuous
 62
     3
370
    20
100
AcDbCircle
 10
143.61228750201
 20
114.81271386037
 30
0.0
 40
34.3
100
AcDbArc
 50
339.16524836755
 51
359.6181751394
  0
ARC
  5
37A
330
18
100
AcDbEntity
  8
LEVEL001
  6
Continuous
 62
     3
370
    20
100
AcDbCircle
 10
143.61228750201
 20
78.150228675313
 30
0.0
 40
34.3
100
AcDbArc
 50
0.38182486060213
 51
21.936801848487
  0
ARC
  5
37B
330
18
100
AcDbEntity
  8
LEVEL001
  6
Continuous
 62
     3
370
    20
100
AcDbCircle
 10
178.31151698717
 20
78.381471267843
 30
0.0
 40
0.4
100
AcDbArc
 50
269.99999999997
 51
0.0
  0
ARC
  5
37C
330
18
100
AcDbEntity
  8
LEVEL001
  6
Continuous
 62
     3
370
    20
100
AcDbCircle
 10
178.31151698717
 20
78.381471267843
 30
0.0
 40
0.4
100
AcDbArc
 50
180.38182486092
 51
269.99999999998
  0
ARC
  5
37D
330
18
100
AcDbEntity
  8
LEVEL001
  6
Continuous
 62
     3
370
    20
100
AcDbCircle
 10
178.31151698717
 20
114.58147126784
 30
0.0
 40
0.4
100
AcDbArc
 50
0.0000000003126612
 51
90.000000000033
  0
ARC
  5
37E
330
18
100
AcDbEntity
  8
LEVEL001
  6
Continuous
 62
     3
370
    20
100
AcDbCircle
 10
178.31151698717
 20
114.58147126784
 30
0.0
 40
0.4
100
AcDbArc
 50
90.00000000001599
 51
179.61817513908
  0
LWPOLYLINE
  5
37F
330
18
100
AcDbEntity
  8
LEVEL001
  6
DOT
 62
     1
370
    15
100
AcDbPolyline
 90
        4
 70
     0
 43
0.0
 10
178.21078888758
 20
80.081471267855
 10
181.41078888758
 20
80.081471267855
 10
181.41078888758
 20
81.281471267855
 10
178.21078888755
 20
81.281471267855
  0
LINE
  5
380
330
18
100
AcDbEntity
  8
LEVEL001
  6
DASHDOT
 62
     1
370
    15
100
AcDbLine
 10
176.89475068957
 20
80.681471267841
 30
0.0
 11
181.93956313251
 21
80.681471267841
 31
0.0
  0
LWPOLYLINE
  5
381
330
18
100
AcDbEntity
  8
LEVEL001
  6
DOT
 62
     1
370
    15
100
AcDbPolyline
 90
        4
 70
     0
 43
0.0
 10
178.21078888758
 20
112.88147126783
 10
181.41078888758
 20
112.88147126783
 10
181.41078888758
 20
111.68147126783
 10
178.21078888755
 20
111.68147126783
  0
LINE
  5
382
330
18
100
AcDbEntity
  8
LEVEL001
  6
DASHDOT
 62
     1
370
    15
100
AcDbLine
 10
176.89475068957
 20
112.28147126784
 30
0.0
 11
181.93956313251
 21
112.28147126784
 31
0.0
  0
LINE
  5
383
330
18
100
AcDbEntity
  8
LEVEL001
  6
Continuous
 62
     1
370
    15
100
AcDbLine
 10
176.31151698717
 20
114.98147126784
 30
0.0
 11
154.78031939358
 21
114.98147126784
 31
0.0
  0
LINE
  5
384
330
18
100
AcDbEntity
  8
LEVEL001
  6
Continuous
 62
     1
370
    15
100
AcDbLine
 10
176.31151698717
 20
77.981471267843
 30
0.0
 11
154.78031939358
 21
77.981471267843
 31
0.0
  0
LINE
  5
385
330
18
100
AcDbEntity
  8
LEVEL001
  6
Continuous
 62
     1
370
    15
100
AcDbLine
 10
156.78031939358
 20
114.98147126784
 30
0.0
 11
156.78031939358
 21
96.481471267841
 31
0.0
  0
LINE
  5
386
330
18
100
AcDbEntity
  8
LEVEL001
  6
Continuous
 62
     1
370
    15
100
AcDbLine
 10
156.78031939358
 20
77.981471267843
 30
0.0
 11
156.78031939358
 21
96.481471267841
 31
0.0
  0
LINE
  5
387
330
18
100
AcDbEntity
  8
LEVEL001
  6
Continuous
 62
     1
370
    15
100
AcDbLine
 10
156.78031939358
 20
114.98147126784
 30
0.0
 11
155.97647181629
 21
111.98147126784
 31
0.0
  0
LINE
  5
388
330
18
100
AcDbEntity
  8
LEVEL001
  6
Continuous
 62
     1
370
    15
100
AcDbLine
 10
156.78031939358
 20
114.98147126784
 30
0.0
 11
157.58416697088
 21
111.98147126784
 31
0.0
  0
LINE
  5
389
330
18
100
AcDbEntity
  8
LEVEL001
  6
Continuous
 62
     1
370
    15
100
AcDbLine
 10
156.78031939358
 20
77.981471267843
 30
0.0
 11
157.58416697088
 21
80.981471267843
 31
0.0
  0
LINE
  5
38A
330
18
100
AcDbEntity
  8
LEVEL001
  6
Continuous
 62
     1
370
    15
100
AcDbLine
 10
156.78031939358
 20
77.981471267843
 30
0.0
 11
155.97647181629
 21
80.981471267843
 31
0.0
  0
MTEXT
  5
38B
330
18
100
AcDbEntity
  8
LEVEL001
 62
     3
370
    20
100
AcDbMText
 10
155.0660336793
 20
96.481471267841
 30
0.0
 40
4.0
 41
0.0
 71
     8
 72
     1
  1
\A1;(185)
 11
0.0
 21
1.0
 31
0.0
 73
     1
 44
1.0
  0
LINE
  5
38C
330
18
100
AcDbEntity
  8
LEVEL001
  6
DASHDOT
 62
     1
370
    15
100
AcDbLine
 10
166.28020518271
 20
96.481471267841
 30
0.0
 11
222.69361687194
 21
96.481471267841
 31
0.0
  0
LINE
  5
38D
330
18
100
AcDbEntity
  8
LEVEL001
  6
DASHDOT
 62
     1
370
    15
100
AcDbLine
 10
198.71151698717
 20
130.45980299969
 30
0.0
 11
198.71151698717
 21
61.929886627129
 31
0.0
  0
LINE
  5
38E
330
18
100
AcDbEntity
  8
LEVEL001
  6
Continuous
 62
     3
370
    20
100
AcDbLine
 10
351.0
 20
145.0
 30
0.0
 11
351.0
 21
100.0
 31
0.0
  0
LINE
  5
38F
330
18
100
AcDbEntity
  8
LEVEL001
  6
Continuous
 62
     3
370
    20
100
AcDbLine
 10
381.0
 20
145.0
 30
0.0
 11
381.0
 21
100.0
 31
0.0
  0
LINE
  5
390
330
18
100
AcDbEntity
  8
LEVEL001
  6
Continuous
 62
     3
370
    20
100
AcDbLine
 10
386.0
 20
145.0
 30
0.0
 11
386.0
 21
100.0
 31
0.0
  0
LWPOLYLINE
  5
391
330
18
100
AcDbEntity
  8
LEVEL001
  6
DOT
 62
     1
370
    15
100
AcDbPolyline
 90
        4
 70
     0
 43
0.0
 10
80.016331405393
 20
229.12260788757
 10
80.016331405393
 20
230.99760788757
 10
81.066331405394
 20
230.99760788757
 10
81.066331405394
 20
229.12260788757
  0
TEXT
  5
392
330
18
100
AcDbEntity
  8
LEVEL001
 62
     3
370
    20
100
AcDbText
 10
347.0
 20
282.5
 30
0.0
 40
3.0
  1
製品仕様
 72
     5
 11
359.0
 21
282.5
 31
0.0
100
AcDbText
  0
TEXT
  5
393
330
18
100
AcDbEntity
  8
LEVEL001
 62
     3
370
    20
100
AcDbText
 10
347.0
 20
278.5
 30
0.0
 40
3.0
  1
・主要材料はアルミニウム合金製とします。
 72
     5
 11
407.0
 21
278.5
 31
0.0
100
AcDbText
  0
TEXT
  5
394
330
18
100
AcDbEntity
  8
LEVEL001
 62
     3
370
    20
100
AcDbText
 10
347.0
 20
274.5
 30
0.0
 40
3.0
  1
・表面処理はヘアライン研磨後
 72
     5
 11
389.0
 21
274.5
 31
0.0
100
AcDbText
  0
TEXT
  5
395
330
18
100
AcDbEntity
  8
LEVEL001
 62
     3
370
    20
100
AcDbText
 10
347.0
 20
270.5
 30
0.0
 40
3.0
  1
　アクリル樹脂クリア塗装を施します。
 72
     5
 11
401.0
 21
270.5
 31
0.0
100
AcDbText
  0
TEXT
  5
396
330
18
100
AcDbEntity
  8
LEVEL001
 62
     3
370
    20
100
AcDbText
 10
347.0
 20
266.5
 30
0.0
 40
3.0
  1
・材質指示のないボルト類はＳＵＳ３０４
 72
     5
 11
404.0
 21
266.5
 31
0.0
100
AcDbText
  0
TEXT
  5
397
330
18
100
AcDbEntity
  8
LEVEL001
 62
     3
370
    20
100
AcDbText
 10
347.0
 20
262.5
 30
0.0
 40
3.0
  1
　とします。
 72
     5
 11
365.0
 21
262.5
 31
0.0
100
AcDbText
  0
TEXT
  5
398
330
18
100
AcDbEntity
  8
LEVEL001
 62
     3
370
    20
100
AcDbText
 10
347.0
 20
258.5
 30
0.0
 40
3.0
  1
設計条件
 72
     5
 11
359.0
 21
258.5
 31
0.0
100
AcDbText
  0
TEXT
  5
399
330
18
100
AcDbEntity
  8
LEVEL001
 62
     3
370
    20
100
AcDbText
 10
347.0
 20
254.5
 30
0.0
 40
3.0
  1
・基準風速と地表面粗度の許容範囲の目安は
 72
     5
 11
407.0
 21
254.5
 31
0.0
100
AcDbText
  0
TEXT
  5
39A
330
18
100
AcDbEntity
  8
LEVEL001
 62
     3
370
    20
100
AcDbText
 10
347.0
 20
250.5
 30
0.0
 40
3.0
  1
　下表を参照願います。（旗無し時）
 72
     5
 11
398.0
 21
250.5
 31
0.0
100
AcDbText
  0
TEXT
  5
39B
330
18
100
AcDbEntity
  8
LEVEL001
 62
     3
370
    20
100
AcDbText
 10
347.0
 20
246.5
 30
0.0
 40
3.0
  1
・基礎寸法は地盤の許容応力度が１０ｔ／㎡
 72
     5
 11
407.0
 21
246.5
 31
0.0
100
AcDbText
  0
TEXT
  5
39C
330
18
100
AcDbEntity
  8
LEVEL001
 62
     3
370
    20
100
AcDbText
 10
347.0
 20
242.5
 30
0.0
 40
3.0
  1
　（短期）時の参考寸法です。
 72
     5
 11
389.0
 21
242.5
 31
0.0
100
AcDbText
  0
TEXT
  5
39D
330
18
100
AcDbEntity
  8
LEVEL001
 62
     3
370
    20
100
AcDbText
 10
347.0
 20
238.5
 30
0.0
 40
3.0
  1
・地上～１５ｍ迄
 72
     5
 11
371.0
 21
238.5
 31
0.0
100
AcDbText
  0
TEXT
  5
39E
330
18
100
AcDbEntity
  8
LEVEL001
 62
     3
370
    20
100
AcDbText
 10
347.0
 20
234.5
 30
0.0
 40
3.0
  1
    　粗度区分　I 　  II　 III　　IV
 41
0.69230769230769
 72
     5
 11
401.0
 21
234.5
 31
0.0
100
AcDbText
  0
TEXT
  5
39F
330
18
100
AcDbEntity
  8
LEVEL001
 62
     3
370
    20
100
AcDbText
 10
347.0
 20
230.5
 30
0.0
 40
3.0
  1
　　　　３０    ○    ○    ○    ○
 41
0.69230769230769
 72
     5
 11
401.0
 21
230.5
 31
0.0
100
AcDbText
  0
TEXT
  5
3A0
330
18
100
AcDbEntity
  8
LEVEL001
 62
     3
370
    20
100
AcDbText
 10
347.0
 20
226.5
 30
0.0
 40
3.0
  1
　　　　３２    －    ○    ○    ○
 41
0.69230769230769
 72
     5
 11
401.0
 21
226.5
 31
0.0
100
AcDbText
  0
TEXT
  5
3A1
330
18
100
AcDbEntity
  8
LEVEL001
 62
     3
370
    20
100
AcDbText
 10
347.0
 20
222.5
 30
0.0
 40
3.0
  1
　　　　３４    －    ○    ○    ○
 41
0.69230769230769
 72
     5
 11
401.0
 21
222.5
 31
0.0
100
AcDbText
  0
TEXT
  5
3A2
330
18
100
AcDbEntity
  8
LEVEL001
 62
     3
370
    20
100
AcDbText
 10
347.0
 20
218.5
 30
0.0
 40
3.0
  1
　　　　３６    －    －    ○    ○
 41
0.69230769230769
 72
     5
 11
401.0
 21
218.5
 31
0.0
100
AcDbText
  0
TEXT
  5
3A3
330
18
100
AcDbEntity
  8
LEVEL001
 62
     3
370
    20
100
AcDbText
 10
347.0
 20
214.5
 30
0.0
 40
3.0
  1
　　　　３８    －    －    ○    ○
 41
0.69230769230769
 72
     5
 11
401.0
 21
214.5
 31
0.0
100
AcDbText
  0
TEXT
  5
3A4
330
18
100
AcDbEntity
  8
LEVEL001
 62
     3
370
    20
100
AcDbText
 10
347.0
 20
210.5
 30
0.0
 40
3.0
  1
　　　　４０    －    －    ○    ○
 41
0.69230769230769
 72
     5
 11
401.0
 21
210.5
 31
0.0
100
AcDbText
  0
TEXT
  5
3A5
330
18
100
AcDbEntity
  8
LEVEL001
 62
     3
370
    20
100
AcDbText
 10
347.0
 20
206.5
 30
0.0
 40
3.0
  1
　　　　４２    －    －    －    ○
 41
0.69230769230769
 72
     5
 11
401.0
 21
206.5
 31
0.0
100
AcDbText
  0
TEXT
  5
3A6
330
18
100
AcDbEntity
  8
LEVEL001
 62
     3
370
    20
100
AcDbText
 10
347.0
 20
202.5
 30
0.0
 40
3.0
  1
　　　　４４    －    －    －    ○
 41
0.69230769230769
 72
     5
 11
401.0
 21
202.5
 31
0.0
100
AcDbText
  0
TEXT
  5
3A7
330
18
100
AcDbEntity
  8
LEVEL001
 62
     3
370
    20
100
AcDbText
 10
347.0
 20
198.5
 30
0.0
 40
3.0
  1
　　　　４６    －    －    －　  ○
 41
0.72
 72
     5
 11
401.0
 21
198.5
 31
0.0
100
AcDbText
  0
TEXT
  5
3A8
330
18
100
AcDbEntity
  8
LEVEL001
 62
     3
370
    20
100
AcDbText
 10
347.0
 20
190.5
 30
0.0
 40
3.0
  1
注意事項
 72
     5
 11
359.0
 21
190.5
 31
0.0
100
AcDbText
  0
TEXT
  5
3A9
330
18
100
AcDbEntity
  8
LEVEL001
 62
     3
370
    20
100
AcDbText
 10
347.0
 20
186.5
 30
0.0
 40
3.0
  1
・本製品は旗を掲揚する為のポールです。
 72
     5
 11
404.0
 21
186.5
 31
0.0
100
AcDbText
  0
TEXT
  5
3AA
330
18
100
AcDbEntity
  8
LEVEL001
 62
     3
370
    20
100
AcDbText
 10
347.0
 20
182.5
 30
0.0
 40
3.0
  1
　旗以外のものは掲揚しないで下さい。
 72
     5
 11
401.0
 21
182.5
 31
0.0
100
AcDbText
  0
TEXT
  5
3AB
330
18
100
AcDbEntity
  8
LEVEL001
 62
     3
370
    20
100
AcDbText
 10
347.0
 20
178.5
 30
0.0
 40
3.0
  1
　ポール折損の要因となる場合があります。
 72
     5
 11
407.0
 21
178.5
 31
0.0
100
AcDbText
  0
TEXT
  5
3AC
330
18
100
AcDbEntity
  8
LEVEL001
 62
     3
370
    20
100
AcDbText
 10
347.0
 20
174.5
 30
0.0
 40
3.0
  1
・強風時（瞬間最大風速15m/s時）には旗を
 41
0.88636363636364
 72
     5
 11
405.5
 21
174.5
 31
0.0
100
AcDbText
  0
TEXT
  5
3AD
330
18
100
AcDbEntity
  8
LEVEL001
 62
     3
370
    20
100
AcDbText
 10
347.0
 20
170.5
 30
0.0
 40
3.0
  1
　取外して下さい。ポール折損の要因となる
 72
     5
 11
407.0
 21
170.5
 31
0.0
100
AcDbText
  0
TEXT
  5
3AE
330
18
100
AcDbEntity
  8
LEVEL001
 62
     3
370
    20
100
AcDbText
 10
347.0
 20
166.5
 30
0.0
 40
3.0
  1
　場合があります。
 72
     5
 11
374.0
 21
166.5
 31
0.0
100
AcDbText
  0
TEXT
  5
3AF
330
18
100
AcDbEntity
  8
LEVEL001
 62
     3
370
    20
100
AcDbText
 10
347.0
 20
162.5
 30
0.0
 40
3.0
  1
・毎朝夕の昇降を推奨します。
 72
     5
 11
389.0
 21
162.5
 31
0.0
100
AcDbText
  0
TEXT
  5
3B0
330
18
100
AcDbEntity
  8
LEVEL001
 62
     3
370
    20
100
AcDbText
 10
347.0
 20
158.5
 30
0.0
 40
3.0
  1
・製品改良のため、一部仕様変更を
 72
     5
 11
395.0
 21
158.5
 31
0.0
100
AcDbText
  0
TEXT
  5
3B1
330
18
100
AcDbEntity
  8
LEVEL001
 62
     3
370
    20
100
AcDbText
 10
347.0
 20
154.5
 30
0.0
 40
3.0
  1
　する場合があります。
 72
     5
 11
380.0
 21
154.5
 31
0.0
100
AcDbText
  0
ENDSEC
  0
SECTION
  2
OBJECTS
  0
DICTIONARY
  5
C
330
0
100
AcDbDictionary
281
     1
  3
ACAD_DETAILVIEWSTYLE
350
434
  3
ACAD_GROUP
350
D
  3
ACAD_LAYOUT
350
3B3
  3
ACAD_MATERIAL
350
3F1
  3
ACAD_MLEADERSTYLE
350
432
  3
ACAD_MLINESTYLE
350
1B
  3
ACAD_PLOTSTYLENAME
350
3F5
  3
ACAD_SCALELIST
350
3B6
  3
ACAD_SECTIONVIEWSTYLE
350
435
  3
ACAD_TABLESTYLE
350
431
  3
ACAD_VISUALSTYLE
350
3D8
  3
AcDbVariableDictionary
350
3F9
  0
DICTIONARY
  5
3F7
330
8
100
AcDbDictionary
280
     1
281
     1
  3
ACAD_XREC_ROUNDTRIP
360
3F8
  0
DICTIONARY
  5
434
102
{ACAD_REACTORS
330
C
102
}
330
C
100
AcDbDictionary
281
     1
  0
DICTIONARY
  5
D
102
{ACAD_REACTORS
330
C
102
}
330
C
100
AcDbDictionary
281
     1
  0
DICTIONARY
  5
3B3
102
{ACAD_REACTORS
330
C
102
}
330
C
100
AcDbDictionary
281
     1
  3
Layout1
350
3B5
  3
Model
350
3B4
  0
DICTIONARY
  5
3F1
102
{ACAD_REACTORS
330
C
102
}
330
C
100
AcDbDictionary
281
     1
  3
ByBlock
350
3F3
  3
ByLayer
350
3F2
  3
Global
350
3F4
  0
DICTIONARY
  5
432
102
{ACAD_REACTORS
330
C
102
}
330
C
100
AcDbDictionary
281
     1
  0
DICTIONARY
  5
1B
102
{ACAD_REACTORS
330
C
102
}
330
C
100
AcDbDictionary
281
     1
  0
ACDBDICTIONARYWDFLT
  5
3F5
102
{ACAD_REACTORS
330
C
102
}
330
C
100
AcDbDictionary
281
     1
  3
Normal
350
3F6
100
AcDbDictionaryWithDefault
340
3F6
  0
DICTIONARY
  5
3B6
102
{ACAD_REACTORS
330
C
102
}
330
C
100
AcDbDictionary
281
     1
  3
A0
350
3B7
  3
A1
350
3B8
  3
A2
350
3B9
  3
A3
350
3BA
  3
A4
350
3BB
  3
A5
350
3BC
  3
A6
350
3BD
  3
A7
350
3BE
  3
A8
350
3BF
  3
A9
350
3C0
  3
B0
350
3C1
  3
B1
350
3C2
  3
B2
350
3C3
  3
B3
350
3C4
  3
B4
350
3C5
  3
B5
350
3C6
  3
B6
350
3C7
  3
B7
350
3C8
  3
B8
350
3C9
  3
B9
350
3CA
  3
C0
350
3CB
  3
C1
350
3CC
  3
C2
350
3CD
  3
C3
350
3CE
  3
C4
350
3CF
  3
C5
350
3D0
  3
C6
350
3D1
  3
C7
350
3D2
  3
C8
350
3D3
  3
C9
350
3D4
  3
D0
350
3D5
  3
D1
350
3D6
  3
D2
350
3D7
  0
DICTIONARY
  5
435
102
{ACAD_REACTORS
330
C
102
}
330
C
100
AcDbDictionary
281
     1
  0
DICTIONARY
  5
431
102
{ACAD_REACTORS
330
C
102
}
330
C
100
AcDbDictionary
281
     1
  0
DICTIONARY
  5
3D8
102
{ACAD_REACTORS
330
C
102
}
330
C
100
AcDbDictionary
281
     1
  3
2dWireframe
350
3DD
  3
Basic
350
3E0
  3
Brighten
350
3E4
  3
ColorChange
350
3E8
  3
Conceptual
350
3E2
  3
Dim
350
3E3
  3
EdgeColorOff
350
3EB
  3
Facepattern
350
3E7
  3
Flat
350
3D9
  3
FlatWithEdges
350
3DA
  3
Gouraud
350
3DB
  3
GouraudWithEdges
350
3DC
  3
Hidden
350
3DF
  3
JitterOff
350
3E9
  3
Linepattern
350
3E6
  3
OverhangOff
350
3EA
  3
Realistic
350
3E1
  3
Shaded
350
3F0
  3
Shaded with edges
350
3EF
  3
Shades of Gray
350
3EC
  3
Sketchy
350
3ED
  3
Thicken
350
3E5
  3
Wireframe
350
3DE
  3
X-Ray
350
3EE
  0
DICTIONARY
  5
3F9
102
{ACAD_REACTORS
330
C
102
}
330
C
100
AcDbDictionary
281
     1
  3
CANNOSCALE
350
3FA
  3
MSLTSCALE
350
433
  0
XRECORD
  5
3F8
102
{ACAD_REACTORS
330
3F7
102
}
330
3F7
100
AcDbXrecord
280
     1
102
VTR_0.000_0.000_1.000_1.000_VISUALSTYLE
340
3DD
102
VTR_0.000_0.000_1.000_1.000_GRIDDISPLAY
 70
     3
102
VTR_0.000_0.000_1.000_1.000_GRIDMAJOR
 70
     5
102
VTR_0.000_0.000_1.000_1.000_DEFAULTLIGHTING
280
     1
102
VTR_0.000_0.000_1.000_1.000_DEFAULTLIGHTINGTYPE
 70
     1
102
VTR_0.000_0.000_1.000_1.000_BRIGHTNESS
141
0.0
102
VTR_0.000_0.000_1.000_1.000_CONTRAST
142
0.0
  0
LAYOUT
  5
3B5
102
{ACAD_REACTORS
330
3B3
102
}
330
3B3
100
AcDbPlotSettings
  1

  2
none_device
  4

  6

 40
0.0
 41
0.0
 42
0.0
 43
0.0
 44
0.0
 45
0.0
 46
0.0
 47
0.0
 48
0.0
 49
0.0
140
0.0
141
0.0
142
1.0
143
1.0
 70
   688
 72
     0
 73
     0
 74
     5
  7

 75
    16
 76
     0
 77
     2
 78
   300
147
1.0
148
0.0
149
0.0
100
AcDbLayout
  1
Layout1
 70
     1
 71
     1
 10
0.0
 20
0.0
 11
12.0
 21
9.0
 12
0.0
 22
0.0
 32
0.0
 14
1.000000000000000E+20
 24
1.000000000000000E+20
 34
1.000000000000000E+20
 15
-1.000000000000000E+20
 25
-1.000000000000000E+20
 35
-1.000000000000000E+20
146
0.0
 13
0.0
 23
0.0
 33
0.0
 16
1.0
 26
0.0
 36
0.0
 17
0.0
 27
1.0
 37
0.0
 76
     0
330
15
  0
LAYOUT
  5
3B4
102
{ACAD_REACTORS
330
3B3
102
}
330
3B3
100
AcDbPlotSettings
  1

  2
none_device
  4
Letter_(8.50_x_11.00_Inches)
  6

 40
6.35
 41
6.35
 42
6.35000508
 43
6.35000508
 44
215.9
 45
279.4
 46
0.0
 47
0.0
 48
0.0
 49
0.0
140
0.0
141
0.0
142
1.0
143
77.63636557727389
 70
  1712
 72
     0
 73
     0
 74
     0
  7

 75
     0
 76
     0
 77
     2
 78
   300
147
0.0128805617388757
148
2553.854545454658
149
1562.1
100
AcDbLayout
  1
Model
 70
     1
 71
     0
 10
0.0
 20
0.0
 11
420.0
 21
297.0
 12
0.0
 22
0.0
 32
0.0
 14
0.0
 24
0.0
 34
0.0
 15
420.0
 25
297.0
 35
0.0
146
0.0
 13
0.0
 23
0.0
 33
0.0
 16
1.0
 26
0.0
 36
0.0
 17
0.0
 27
1.0
 37
0.0
 76
     0
330
18
331
3B2
  0
MATERIAL
  5
3F3
102
{ACAD_REACTORS
330
3F1
102
}
102
{ACAD_XDICTIONARY
360
42D
102
}
330
3F1
100
AcDbMaterial
  1
ByBlock
  0
MATERIAL
  5
3F2
102
{ACAD_REACTORS
330
3F1
102
}
102
{ACAD_XDICTIONARY
360
42B
102
}
330
3F1
100
AcDbMaterial
  1
ByLayer
  0
MATERIAL
  5
3F4
102
{ACAD_REACTORS
330
3F1
102
}
102
{ACAD_XDICTIONARY
360
42F
102
}
330
3F1
100
AcDbMaterial
  1
Global
  0
ACDBPLACEHOLDER
  5
3F6
102
{ACAD_REACTORS
330
3F5
102
}
330
3F5
  0
SCALE
  5
3B7
102
{ACAD_REACTORS
330
3B6
102
}
330
3B6
100
AcDbScale
 70
     0
300
1:1
140
1.0
141
1.0
290
     1
  0
SCALE
  5
3B8
102
{ACAD_REACTORS
330
3B6
102
}
330
3B6
100
AcDbScale
 70
     0
300
1:2
140
1.0
141
2.0
290
     0
  0
SCALE
  5
3B9
102
{ACAD_REACTORS
330
3B6
102
}
330
3B6
100
AcDbScale
 70
     0
300
1:4
140
1.0
141
4.0
290
     0
  0
SCALE
  5
3BA
102
{ACAD_REACTORS
330
3B6
102
}
330
3B6
100
AcDbScale
 70
     0
300
1:5
140
1.0
141
5.0
290
     0
  0
SCALE
  5
3BB
102
{ACAD_REACTORS
330
3B6
102
}
330
3B6
100
AcDbScale
 70
     0
300
1:8
140
1.0
141
8.0
290
     0
  0
SCALE
  5
3BC
102
{ACAD_REACTORS
330
3B6
102
}
330
3B6
100
AcDbScale
 70
     0
300
1:10
140
1.0
141
10.0
290
     0
  0
SCALE
  5
3BD
102
{ACAD_REACTORS
330
3B6
102
}
330
3B6
100
AcDbScale
 70
     0
300
1:16
140
1.0
141
16.0
290
     0
  0
SCALE
  5
3BE
102
{ACAD_REACTORS
330
3B6
102
}
330
3B6
100
AcDbScale
 70
     0
300
1:20
140
1.0
141
20.0
290
     0
  0
SCALE
  5
3BF
102
{ACAD_REACTORS
330
3B6
102
}
330
3B6
100
AcDbScale
 70
     0
300
1:30
140
1.0
141
30.0
290
     0
  0
SCALE
  5
3C0
102
{ACAD_REACTORS
330
3B6
102
}
330
3B6
100
AcDbScale
 70
     0
300
1:40
140
1.0
141
40.0
290
     0
  0
SCALE
  5
3C1
102
{ACAD_REACTORS
330
3B6
102
}
330
3B6
100
AcDbScale
 70
     0
300
1:50
140
1.0
141
50.0
290
     0
  0
SCALE
  5
3C2
102
{ACAD_REACTORS
330
3B6
102
}
330
3B6
100
AcDbScale
 70
     0
300
1:100
140
1.0
141
100.0
290
     0
  0
SCALE
  5
3C3
102
{ACAD_REACTORS
330
3B6
102
}
330
3B6
100
AcDbScale
 70
     0
300
2:1
140
2.0
141
1.0
290
     0
  0
SCALE
  5
3C4
102
{ACAD_REACTORS
330
3B6
102
}
330
3B6
100
AcDbScale
 70
     0
300
4:1
140
4.0
141
1.0
290
     0
  0
SCALE
  5
3C5
102
{ACAD_REACTORS
330
3B6
102
}
330
3B6
100
AcDbScale
 70
     0
300
8:1
140
8.0
141
1.0
290
     0
  0
SCALE
  5
3C6
102
{ACAD_REACTORS
330
3B6
102
}
330
3B6
100
AcDbScale
 70
     0
300
10:1
140
10.0
141
1.0
290
     0
  0
SCALE
  5
3C7
102
{ACAD_REACTORS
330
3B6
102
}
330
3B6
100
AcDbScale
 70
     0
300
100:1
140
100.0
141
1.0
290
     0
  0
SCALE
  5
3C8
102
{ACAD_REACTORS
330
3B6
102
}
330
3B6
100
AcDbScale
 70
     0
300
1/128" = 1'-0"
140
0.0078125
141
12.0
290
     0
  0
SCALE
  5
3C9
102
{ACAD_REACTORS
330
3B6
102
}
330
3B6
100
AcDbScale
 70
     0
300
1/64" = 1'-0"
140
0.015625
141
12.0
290
     0
  0
SCALE
  5
3CA
102
{ACAD_REACTORS
330
3B6
102
}
330
3B6
100
AcDbScale
 70
     0
300
1/32" = 1'-0"
140
0.03125
141
12.0
290
     0
  0
SCALE
  5
3CB
102
{ACAD_REACTORS
330
3B6
102
}
330
3B6
100
AcDbScale
 70
     0
300
1/16" = 1'-0"
140
0.0625
141
12.0
290
     0
  0
SCALE
  5
3CC
102
{ACAD_REACTORS
330
3B6
102
}
330
3B6
100
AcDbScale
 70
     0
300
3/32" = 1'-0"
140
0.09375
141
12.0
290
     0
  0
SCALE
  5
3CD
102
{ACAD_REACTORS
330
3B6
102
}
330
3B6
100
AcDbScale
 70
     0
300
1/8" = 1'-0"
140
0.125
141
12.0
290
     0
  0
SCALE
  5
3CE
102
{ACAD_REACTORS
330
3B6
102
}
330
3B6
100
AcDbScale
 70
     0
300
3/16" = 1'-0"
140
0.1875
141
12.0
290
     0
  0
SCALE
  5
3CF
102
{ACAD_REACTORS
330
3B6
102
}
330
3B6
100
AcDbScale
 70
     0
300
1/4" = 1'-0"
140
0.25
141
12.0
290
     0
  0
SCALE
  5
3D0
102
{ACAD_REACTORS
330
3B6
102
}
330
3B6
100
AcDbScale
 70
     0
300
3/8" = 1'-0"
140
0.375
141
12.0
290
     0
  0
SCALE
  5
3D1
102
{ACAD_REACTORS
330
3B6
102
}
330
3B6
100
AcDbScale
 70
     0
300
1/2" = 1'-0"
140
0.5
141
12.0
290
     0
  0
SCALE
  5
3D2
102
{ACAD_REACTORS
330
3B6
102
}
330
3B6
100
AcDbScale
 70
     0
300
3/4" = 1'-0"
140
0.75
141
12.0
290
     0
  0
SCALE
  5
3D3
102
{ACAD_REACTORS
330
3B6
102
}
330
3B6
100
AcDbScale
 70
     0
300
1" = 1'-0"
140
1.0
141
12.0
290
     0
  0
SCALE
  5
3D4
102
{ACAD_REACTORS
330
3B6
102
}
330
3B6
100
AcDbScale
 70
     0
300
1-1/2" = 1'-0"
140
1.5
141
12.0
290
     0
  0
SCALE
  5
3D5
102
{ACAD_REACTORS
330
3B6
102
}
330
3B6
100
AcDbScale
 70
     0
300
3" = 1'-0"
140
3.0
141
12.0
290
     0
  0
SCALE
  5
3D6
102
{ACAD_REACTORS
330
3B6
102
}
330
3B6
100
AcDbScale
 70
     0
300
6" = 1'-0"
140
6.0
141
12.0
290
     0
  0
SCALE
  5
3D7
102
{ACAD_REACTORS
330
3B6
102
}
330
3B6
100
AcDbScale
 70
     0
300
1'-0" = 1'-0"
140
12.0
141
12.0
290
     0
  0
VISUALSTYLE
  5
3DD
102
{ACAD_REACTORS
330
3D8
102
}
102
{ACAD_XDICTIONARY
360
403
102
}
330
3D8
100
AcDbVisualStyle
  2
2dWireframe
 70
     4
 71
     0
 72
     2
 73
     0
 90
        0
 40
0.6
 41
30.0
 62
     5
 63
     7
421
 16777215
 74
     1
 91
        4
 64
     7
 65
   257
 75
     1
175
     1
 42
1.0
 92
        0
 66
   257
 43
1.0
 76
     1
 77
     6
 78
     2
 67
     7
 79
     5
170
     0
171
     0
290
     0
174
     0
 93
        1
 44
0.0
173
     0
291
     0
 45
0.0
1001
ACAD
1000
AcDbSavedByObjectVersion
1070
     0
  0
VISUALSTYLE
  5
3E0
102
{ACAD_REACTORS
330
3D8
102
}
102
{ACAD_XDICTIONARY
360
409
102
}
330
3D8
100
AcDbVisualStyle
  2
Basic
 70
     7
 71
     1
 72
     0
 73
     1
 90
        0
 40
0.6
 41
30.0
 62
     5
 63
     7
421
 16777215
 74
     0
 91
        4
 64
     7
 65
   257
 75
     1
175
     1
 42
1.0
 92
        8
 66
     7
 43
1.0
 76
     1
 77
     6
 78
     2
 67
     7
 79
     5
170
     0
171
     0
290
     0
174
     0
 93
        1
 44
0.0
173
     0
291
     1
 45
0.0
1001
ACAD
1000
AcDbSavedByObjectVersion
1070
     0
  0
VISUALSTYLE
  5
3E4
102
{ACAD_REACTORS
330
3D8
102
}
102
{ACAD_XDICTIONARY
360
411
102
}
330
3D8
100
AcDbVisualStyle
  2
Brighten
 70
    12
 71
     2
 72
     2
 73
     0
 90
        0
 40
0.6
 41
30.0
 62
     5
 63
     7
421
 16777215
 74
     1
 91
        4
 64
     7
 65
   257
 75
     1
175
     1
 42
1.0
 92
        8
 66
     7
 43
1.0
 76
     1
 77
     6
 78
     2
 67
     7
 79
     5
170
     0
171
     0
290
     0
174
     0
 93
        1
 44
50.0
173
     0
291
     1
 45
0.0
1001
ACAD
1000
AcDbSavedByObjectVersion
1070
     0
  0
VISUALSTYLE
  5
3E8
102
{ACAD_REACTORS
330
3D8
102
}
102
{ACAD_XDICTIONARY
360
419
102
}
330
3D8
100
AcDbVisualStyle
  2
ColorChange
 70
    16
 71
     2
 72
     2
 73
     3
 90
        0
 40
0.6
 41
30.0
 62
     5
 63
     8
421
  8421504
 74
     1
 91
        4
 64
     7
 65
   257
 75
     1
175
     1
 42
1.0
 92
        8
 66
     8
424
  8421504
 43
1.0
 76
     1
 77
     6
 78
     2
 67
     7
 79
     5
170
     0
171
     0
290
     0
174
     0
 93
        1
 44
0.0
173
     0
291
     1
 45
0.0
1001
ACAD
1000
AcDbSavedByObjectVersion
1070
     0
  0
VISUALSTYLE
  5
3E2
102
{ACAD_REACTORS
330
3D8
102
}
102
{ACAD_XDICTIONARY
360
40D
102
}
330
3D8
100
AcDbVisualStyle
  2
Conceptual
 70
     9
 71
     3
 72
     2
 73
     0
 90
        0
 40
0.6
 41
30.0
 62
     5
 63
     7
421
 16777215
 74
     2
 91
        2
 64
     7
 65
   257
 75
     1
175
     1
 42
179.0
 92
        8
 66
     7
 43
1.0
 76
     1
 77
     6
 78
     2
 67
     7
 79
     3
170
     0
171
     0
290
     0
174
     0
 93
        1
 44
0.0
173
     0
291
     0
 45
0.0
1001
ACAD
1000
AcDbSavedByObjectVersion
1070
     0
  0
VISUALSTYLE
  5
3E3
102
{ACAD_REACTORS
330
3D8
102
}
102
{ACAD_XDICTIONARY
360
40F
102
}
330
3D8
100
AcDbVisualStyle
  2
Dim
 70
    11
 71
     2
 72
     2
 73
     0
 90
        0
 40
0.6
 41
30.0
 62
     5
 63
     7
421
 16777215
 74
     1
 91
        4
 64
     7
 65
   257
 75
     1
175
     1
 42
1.0
 92
        8
 66
     7
 43
1.0
 76
     1
 77
     6
 78
     2
 67
     7
 79
     5
170
     0
171
     0
290
     0
174
     0
 93
        1
 44
-50.0
173
     0
291
     1
 45
0.0
1001
ACAD
1000
AcDbSavedByObjectVersion
1070
     0
  0
VISUALSTYLE
  5
3EB
102
{ACAD_REACTORS
330
3D8
102
}
102
{ACAD_XDICTIONARY
360
41F
102
}
330
3D8
100
AcDbVisualStyle
  2
EdgeColorOff
 70
    22
 71
     2
 72
     2
 73
     0
 90
        0
 40
0.6
 41
30.0
 62
     5
 63
     7
421
 16777215
 74
     1
 91
        4
 64
     7
 65
   257
 75
     1
175
     1
 42
1.0
 92
        8
 66
     7
 43
1.0
 76
     1
 77
     6
 78
     2
 67
     7
 79
     5
170
     0
171
     0
290
     0
174
     0
 93
        1
 44
0.0
173
     0
291
     1
 45
0.0
1001
ACAD
1000
AcDbSavedByObjectVersion
1070
     0
  0
VISUALSTYLE
  5
3E7
102
{ACAD_REACTORS
330
3D8
102
}
102
{ACAD_XDICTIONARY
360
417
102
}
330
3D8
100
AcDbVisualStyle
  2
Facepattern
 70
    15
 71
     2
 72
     2
 73
     0
 90
        0
 40
0.6
 41
30.0
 62
     5
 63
     7
421
 16777215
 74
     1
 91
        4
 64
     7
 65
   257
 75
     1
175
     1
 42
1.0
 92
        8
 66
     7
 43
1.0
 76
     1
 77
     6
 78
     2
 67
     7
 79
     5
170
     0
171
     0
290
     0
174
     0
 93
        1
 44
0.0
173
     0
291
     1
 45
0.0
1001
ACAD
1000
AcDbSavedByObjectVersion
1070
     0
  0
VISUALSTYLE
  5
3D9
102
{ACAD_REACTORS
330
3D8
102
}
102
{ACAD_XDICTIONARY
360
3FB
102
}
330
3D8
100
AcDbVisualStyle
  2
Flat
 70
     0
 71
     2
 72
     1
 73
     1
 90
        2
 40
0.6
 41
30.0
 62
     5
 63
     7
421
 16777215
 74
     0
 91
        0
 64
     7
 65
   257
 75
     1
175
     1
 42
1.0
 92
        8
 66
     7
 43
1.0
 76
     1
 77
     6
 78
     2
 67
     7
 79
     5
170
     0
171
     0
290
     0
174
     0
 93
       13
 44
0.0
173
     0
291
     1
 45
0.0
1001
ACAD
1000
AcDbSavedByObjectVersion
1070
     0
  0
VISUALSTYLE
  5
3DA
102
{ACAD_REACTORS
330
3D8
102
}
102
{ACAD_XDICTIONARY
360
3FD
102
}
330
3D8
100
AcDbVisualStyle
  2
FlatWithEdges
 70
     1
 71
     2
 72
     1
 73
     1
 90
        2
 40
0.6
 41
30.0
 62
     5
 63
     7
421
 16777215
 74
     1
 91
        0
 64
     7
 65
   257
 75
     1
175
     1
 42
1.0
 92
        0
 66
   257
 43
1.0
 76
     1
 77
     6
 78
     2
 67
     7
 79
     5
170
     0
171
     0
290
     0
174
     0
 93
       13
 44
0.0
173
     0
291
     1
 45
0.0
1001
ACAD
1000
AcDbSavedByObjectVersion
1070
     0
  0
VISUALSTYLE
  5
3DB
102
{ACAD_REACTORS
330
3D8
102
}
102
{ACAD_XDICTIONARY
360
3FF
102
}
330
3D8
100
AcDbVisualStyle
  2
Gouraud
 70
     2
 71
     2
 72
     2
 73
     1
 90
        2
 40
0.6
 41
30.0
 62
     5
 63
     7
421
 16777215
 74
     0
 91
        0
 64
     7
 65
   257
 75
     1
175
     1
 42
1.0
 92
        0
 66
     7
 43
1.0
 76
     1
 77
     6
 78
     2
 67
     7
 79
     5
170
     0
171
     0
290
     0
174
     0
 93
       13
 44
0.0
173
     0
291
     1
 45
0.0
1001
ACAD
1000
AcDbSavedByObjectVersion
1070
     0
  0
VISUALSTYLE
  5
3DC
102
{ACAD_REACTORS
330
3D8
102
}
102
{ACAD_XDICTIONARY
360
401
102
}
330
3D8
100
AcDbVisualStyle
  2
GouraudWithEdges
 70
     3
 71
     2
 72
     2
 73
     1
 90
        2
 40
0.6
 41
30.0
 62
     5
 63
     7
421
 16777215
 74
     1
 91
        0
 64
     7
 65
   257
 75
     1
175
     1
 42
1.0
 92
        0
 66
   257
 43
1.0
 76
     1
 77
     6
 78
     2
 67
     7
 79
     5
170
     0
171
     0
290
     0
174
     0
 93
       13
 44
0.0
173
     0
291
     1
 45
0.0
1001
ACAD
1000
AcDbSavedByObjectVersion
1070
     0
  0
VISUALSTYLE
  5
3DF
102
{ACAD_REACTORS
330
3D8
102
}
102
{ACAD_XDICTIONARY
360
407
102
}
330
3D8
100
AcDbVisualStyle
  2
Hidden
 70
     6
 71
     1
 72
     2
 73
     2
 90
        0
 40
0.6
 41
30.0
 62
     5
 63
     7
421
 16777215
 74
     2
 91
        2
 64
     7
 65
   257
 75
     2
175
     1
 42
40.0
 92
        0
 66
   257
 43
1.0
 76
     1
 77
     6
 78
     2
 67
     7
 79
     3
170
     0
171
     0
290
     0
174
     0
 93
        1
 44
0.0
173
     0
291
     0
 45
0.0
1001
ACAD
1000
AcDbSavedByObjectVersion
1070
     0
  0
VISUALSTYLE
  5
3E9
102
{ACAD_REACTORS
330
3D8
102
}
102
{ACAD_XDICTIONARY
360
41B
102
}
330
3D8
100
AcDbVisualStyle
  2
JitterOff
 70
    20
 71
     2
 72
     2
 73
     0
 90
        0
 40
0.6
 41
30.0
 62
     5
 63
     7
421
 16777215
 74
     1
 91
        4
 64
     7
 65
   257
 75
     1
175
     1
 42
1.0
 92
       10
 66
     7
 43
1.0
 76
     1
 77
     6
 78
     2
 67
     7
 79
     5
170
     0
171
     0
290
     0
174
     0
 93
        1
 44
0.0
173
     0
291
     1
 45
0.0
1001
ACAD
1000
AcDbSavedByObjectVersion
1070
     0
  0
VISUALSTYLE
  5
3E6
102
{ACAD_REACTORS
330
3D8
102
}
102
{ACAD_XDICTIONARY
360
415
102
}
330
3D8
100
AcDbVisualStyle
  2
Linepattern
 70
    14
 71
     2
 72
     2
 73
     0
 90
        0
 40
0.6
 41
30.0
 62
     5
 63
     7
421
 16777215
 74
     1
 91
        4
 64
     7
 65
   257
 75
     7
175
     7
 42
1.0
 92
        8
 66
     7
 43
1.0
 76
     1
 77
     6
 78
     2
 67
     7
 79
     5
170
     0
171
     0
290
     0
174
     0
 93
        1
 44
0.0
173
     0
291
     1
 45
0.0
1001
ACAD
1000
AcDbSavedByObjectVersion
1070
     0
  0
VISUALSTYLE
  5
3EA
102
{ACAD_REACTORS
330
3D8
102
}
102
{ACAD_XDICTIONARY
360
41D
102
}
330
3D8
100
AcDbVisualStyle
  2
OverhangOff
 70
    21
 71
     2
 72
     2
 73
     0
 90
        0
 40
0.6
 41
30.0
 62
     5
 63
     7
421
 16777215
 74
     1
 91
        4
 64
     7
 65
   257
 75
     1
175
     1
 42
1.0
 92
        9
 66
     7
 43
1.0
 76
     1
 77
     6
 78
     2
 67
     7
 79
     5
170
     0
171
     0
290
     0
174
     0
 93
        1
 44
0.0
173
     0
291
     1
 45
0.0
1001
ACAD
1000
AcDbSavedByObjectVersion
1070
     0
  0
VISUALSTYLE
  5
3E1
102
{ACAD_REACTORS
330
3D8
102
}
102
{ACAD_XDICTIONARY
360
40B
102
}
330
3D8
100
AcDbVisualStyle
  2
Realistic
 70
     8
 71
     2
 72
     3
 73
     0
 90
        2
 40
0.6
 41
30.0
 62
     5
 63
     7
421
 16777215
 74
     0
 91
        0
 64
     7
 65
   257
 75
     1
175
     1
 42
1.0
 92
        8
 66
   257
 43
1.0
 76
     1
 77
     6
 78
     2
 67
     7
 79
     3
170
     0
171
     0
290
     0
174
     0
 93
       13
 44
0.0
173
     0
291
     0
 45
0.0
1001
ACAD
1000
AcDbSavedByObjectVersion
1070
     0
  0
VISUALSTYLE
  5
3F0
102
{ACAD_REACTORS
330
3D8
102
}
102
{ACAD_XDICTIONARY
360
429
102
}
330
3D8
100
AcDbVisualStyle
  2
Shaded
 70
    27
 71
     2
 72
     2
 73
     1
 90
        2
 40
0.6
 41
30.0
 62
     5
 63
     7
421
 16777215
 74
     0
 91
        4
 64
     7
 65
   257
 75
     1
175
     1
 42
1.0
 92
        8
 66
   257
 43
1.0
 76
     1
 77
     6
 78
     2
 67
     8
425
  7895160
 79
     3
170
     0
171
     0
290
     0
174
     0
 93
        5
 44
0.0
173
     0
291
     0
 45
0.0
1001
ACAD
1000
AcDbSavedByObjectVersion
1070
     0
  0
VISUALSTYLE
  5
3EF
102
{ACAD_REACTORS
330
3D8
102
}
102
{ACAD_XDICTIONARY
360
427
102
}
330
3D8
100
AcDbVisualStyle
  2
Shaded with edges
 70
    26
 71
     2
 72
     2
 73
     1
 90
        2
 40
0.6
 41
30.0
 62
     5
 63
     7
421
 16777215
 74
     1
 91
       10
 64
     7
 65
   257
 75
     2
175
     1
 42
1.0
 92
        8
 66
   257
 43
1.0
 76
     1
 77
     6
 78
     2
 67
     7
 79
     3
170
     0
171
     0
290
     0
174
     0
 93
        5
 44
0.0
173
     0
291
     0
 45
0.0
1001
ACAD
1000
AcDbSavedByObjectVersion
1070
     0
  0
VISUALSTYLE
  5
3EC
102
{ACAD_REACTORS
330
3D8
102
}
102
{ACAD_XDICTIONARY
360
421
102
}
330
3D8
100
AcDbVisualStyle
  2
Shades of Gray
 70
    23
 71
     2
 72
     2
 73
     3
 90
        0
 40
0.6
 41
30.0
 62
     5
 63
     7
421
 16777215
 74
     2
 91
        2
 64
     7
 65
     7
 75
     1
175
     1
 42
40.0
 92
        8
 66
     7
 43
1.0
 76
     1
 77
     6
 78
     2
 67
     7
 79
     3
170
     0
171
     0
290
     0
174
     0
 93
        1
 44
0.0
173
     0
291
     0
 45
0.0
1001
ACAD
1000
AcDbSavedByObjectVersion
1070
     0
  0
VISUALSTYLE
  5
3ED
102
{ACAD_REACTORS
330
3D8
102
}
102
{ACAD_XDICTIONARY
360
423
102
}
330
3D8
100
AcDbVisualStyle
  2
Sketchy
 70
    24
 71
     1
 72
     2
 73
     2
 90
        0
 40
0.6
 41
30.0
 62
     5
 63
     7
421
 16777215
 74
     2
 91
        2
 64
     7
 65
     7
 75
     1
175
     1
 42
40.0
 92
       11
 66
     7
 43
1.0
 76
     1
 77
     6
 78
     2
 67
     7
 79
     6
170
     0
171
     0
290
     0
174
     0
 93
        1
 44
0.0
173
     0
291
     0
 45
0.0
1001
ACAD
1000
AcDbSavedByObjectVersion
1070
     0
  0
VISUALSTYLE
  5
3E5
102
{ACAD_REACTORS
330
3D8
102
}
102
{ACAD_XDICTIONARY
360
413
102
}
330
3D8
100
AcDbVisualStyle
  2
Thicken
 70
    13
 71
     2
 72
     2
 73
     0
 90
        0
 40
0.6
 41
30.0
 62
     5
 63
     7
421
 16777215
 74
     1
 91
        4
 64
     7
 65
   257
 75
     1
175
     1
 42
1.0
 92
       12
 66
     7
 43
1.0
 76
     1
 77
     6
 78
     2
 67
     7
 79
     5
170
     0
171
     0
290
     0
174
     0
 93
        1
 44
0.0
173
     0
291
     1
 45
0.0
1001
ACAD
1000
AcDbSavedByObjectVersion
1070
     0
  0
VISUALSTYLE
  5
3DE
102
{ACAD_REACTORS
330
3D8
102
}
102
{ACAD_XDICTIONARY
360
405
102
}
330
3D8
100
AcDbVisualStyle
  2
Wireframe
 70
     5
 71
     0
 72
     2
 73
     0
 90
        0
 40
0.6
 41
30.0
 62
     5
 63
     7
421
 16777215
 74
     1
 91
        4
 64
     7
 65
   257
 75
     1
175
     1
 42
1.0
 92
        0
 66
   257
 43
1.0
 76
     1
 77
     6
 78
     2
 67
     7
 79
     3
170
     0
171
     0
290
     0
174
     0
 93
        1
 44
0.0
173
     0
291
     0
 45
0.0
1001
ACAD
1000
AcDbSavedByObjectVersion
1070
     0
  0
VISUALSTYLE
  5
3EE
102
{ACAD_REACTORS
330
3D8
102
}
102
{ACAD_XDICTIONARY
360
425
102
}
330
3D8
100
AcDbVisualStyle
  2
X-Ray
 70
    25
 71
     2
 72
     2
 73
     1
 90
        1
 40
0.5
 41
30.0
 62
     5
 63
     7
421
 16777215
 74
     1
 91
        0
 64
     7
 65
   257
 75
     1
175
     1
 42
1.0
 92
        8
 66
     7
 43
1.0
 76
     1
 77
     6
 78
     2
 67
     7
 79
     3
170
     0
171
     0
290
     0
174
     0
 93
       13
 44
0.0
173
     0
291
     0
 45
0.0
1001
ACAD
1000
AcDbSavedByObjectVersion
1070
     0
  0
DICTIONARYVAR
  5
3FA
102
{ACAD_REACTORS
330
3F9
102
}
330
3F9
100
DictionaryVariables
280
     0
  1
1:1
  0
DICTIONARYVAR
  5
433
102
{ACAD_REACTORS
330
3F9
102
}
330
3F9
100
DictionaryVariables
280
     0
  1
0
  0
DICTIONARY
  5
42D
330
3F3
100
AcDbDictionary
280
     1
281
     1
  3
ACAD_XREC_ROUNDTRIP
360
42E
  0
DICTIONARY
  5
42B
330
3F2
100
AcDbDictionary
280
     1
281
     1
  3
ACAD_XREC_ROUNDTRIP
360
42C
  0
DICTIONARY
  5
42F
330
3F4
100
AcDbDictionary
280
     1
281
     1
  3
ACAD_XREC_ROUNDTRIP
360
430
  0
DICTIONARY
  5
403
330
3DD
100
AcDbDictionary
280
     1
281
     1
  3
ACAD_XREC_ROUNDTRIP
360
404
  0
DICTIONARY
  5
409
330
3E0
100
AcDbDictionary
280
     1
281
     1
  3
ACAD_XREC_ROUNDTRIP
360
40A
  0
DICTIONARY
  5
411
330
3E4
100
AcDbDictionary
280
     1
281
     1
  3
ACAD_XREC_ROUNDTRIP
360
412
  0
DICTIONARY
  5
419
330
3E8
100
AcDbDictionary
280
     1
281
     1
  3
ACAD_XREC_ROUNDTRIP
360
41A
  0
DICTIONARY
  5
40D
330
3E2
100
AcDbDictionary
280
     1
281
     1
  3
ACAD_XREC_ROUNDTRIP
360
40E
  0
DICTIONARY
  5
40F
330
3E3
100
AcDbDictionary
280
     1
281
     1
  3
ACAD_XREC_ROUNDTRIP
360
410
  0
DICTIONARY
  5
41F
330
3EB
100
AcDbDictionary
280
     1
281
     1
  3
ACAD_XREC_ROUNDTRIP
360
420
  0
DICTIONARY
  5
417
330
3E7
100
AcDbDictionary
280
     1
281
     1
  3
ACAD_XREC_ROUNDTRIP
360
418
  0
DICTIONARY
  5
3FB
330
3D9
100
AcDbDictionary
280
     1
281
     1
  3
ACAD_XREC_ROUNDTRIP
360
3FC
  0
DICTIONARY
  5
3FD
330
3DA
100
AcDbDictionary
280
     1
281
     1
  3
ACAD_XREC_ROUNDTRIP
360
3FE
  0
DICTIONARY
  5
3FF
330
3DB
100
AcDbDictionary
280
     1
281
     1
  3
ACAD_XREC_ROUNDTRIP
360
400
  0
DICTIONARY
  5
401
330
3DC
100
AcDbDictionary
280
     1
281
     1
  3
ACAD_XREC_ROUNDTRIP
360
402
  0
DICTIONARY
  5
407
330
3DF
100
AcDbDictionary
280
     1
281
     1
  3
ACAD_XREC_ROUNDTRIP
360
408
  0
DICTIONARY
  5
41B
330
3E9
100
AcDbDictionary
280
     1
281
     1
  3
ACAD_XREC_ROUNDTRIP
360
41C
  0
DICTIONARY
  5
415
330
3E6
100
AcDbDictionary
280
     1
281
     1
  3
ACAD_XREC_ROUNDTRIP
360
416
  0
DICTIONARY
  5
41D
330
3EA
100
AcDbDictionary
280
     1
281
     1
  3
ACAD_XREC_ROUNDTRIP
360
41E
  0
DICTIONARY
  5
40B
330
3E1
100
AcDbDictionary
280
     1
281
     1
  3
ACAD_XREC_ROUNDTRIP
360
40C
  0
DICTIONARY
  5
429
330
3F0
100
AcDbDictionary
280
     1
281
     1
  3
ACAD_XREC_ROUNDTRIP
360
42A
  0
DICTIONARY
  5
427
330
3EF
100
AcDbDictionary
280
     1
281
     1
  3
ACAD_XREC_ROUNDTRIP
360
428
  0
DICTIONARY
  5
421
330
3EC
100
AcDbDictionary
280
     1
281
     1
  3
ACAD_XREC_ROUNDTRIP
360
422
  0
DICTIONARY
  5
423
330
3ED
100
AcDbDictionary
280
     1
281
     1
  3
ACAD_XREC_ROUNDTRIP
360
424
  0
DICTIONARY
  5
413
330
3E5
100
AcDbDictionary
280
     1
281
     1
  3
ACAD_XREC_ROUNDTRIP
360
414
  0
DICTIONARY
  5
405
330
3DE
100
AcDbDictionary
280
     1
281
     1
  3
ACAD_XREC_ROUNDTRIP
360
406
  0
DICTIONARY
  5
425
330
3EE
100
AcDbDictionary
280
     1
281
     1
  3
ACAD_XREC_ROUNDTRIP
360
426
  0
XRECORD
  5
42E
102
{ACAD_REACTORS
330
42D
102
}
330
42D
100
AcDbXrecord
280
     1
102
MATERIAL
148
0.0
149
0.0
149
0.0
 93
        0
 94
      127
282
     0
 72
     1
 77
     1
171
     1
175
     1
179
     1
273
     0
  0
XRECORD
  5
42C
102
{ACAD_REACTORS
330
42B
102
}
330
42B
100
AcDbXrecord
280
     1
102
MATERIAL
148
0.0
149
0.0
149
0.0
 93
        0
 94
      127
282
     0
 72
     1
 77
     1
171
     1
175
     1
179
     1
273
     0
  0
XRECORD
  5
430
102
{ACAD_REACTORS
330
42F
102
}
330
42F
100
AcDbXrecord
280
     1
102
MATERIAL
148
0.0
149
0.0
149
0.0
 93
        0
 94
      127
282
     0
 72
     1
 77
     1
171
     1
175
     1
179
     1
273
     0
  0
XRECORD
  5
404
102
{ACAD_REACTORS
330
403
102
}
330
403
100
AcDbXrecord
280
     1
102
RTVSPropertyOp0
 70
     1
102
RTVSPropertyOp1
 70
     1
102
RTVSPropertyOp2
 70
     1
102
RTVSPropertyOp3
 70
     1
102
RTVSPropertyOp4
 70
     1
102
RTVSPropertyOp5
 70
     1
102
RTVSPropertyOp6
 70
     1
102
RTVSPropertyOp7
 70
     1
102
RTVSPropertyOp8
 70
     1
102
RTVSPropertyOp9
 70
     1
102
RTVSPropertyOp10
 70
     1
102
RTVSPropertyOp11
 70
     1
102
RTVSPropertyOp12
 70
     1
102
RTVSPropertyOp13
 70
     1
102
RTVSPropertyOp14
 70
     1
102
RTVSPropertyOp15
 70
     1
102
RTVSPropertyOp16
 70
     1
102
RTVSPropertyOp17
 70
     1
102
RTVSPropertyOp18
 70
     1
102
RTVSPropertyOp19
 70
     1
102
RTVSPropertyOp20
 70
     1
102
RTVSPropertyOp21
 70
     1
102
RTVSPropertyOp22
 70
     1
102
RTVSPropertyOp23
 70
     1
102
RTVSPropertyOp24
 70
     1
102
RTVSPropertyOp25
 70
     1
102
RTVSPropertyOp26
 70
     1
102
RTVSPropertyOp27
 70
     1
102
RTVSPropertyOp28
 70
     1
102
RTVSPropertyOp29
 70
     1
102
RTVSPropertyOp30
 70
     1
102
RTVSPropertyOp31
 70
     1
102
RTVSPropertyOp32
 70
     1
102
RTVSPropertyOp33
 70
     1
102
RTVSPropertyOp34
 70
     1
102
RTVSPropertyOp35
 70
     1
102
RTVSPropertyOp36
 70
     1
102
RTVSPropertyOp37
 70
     1
102
RTVSPropertyOp38
 70
     1
102
RTVSPropertyOp39
 70
     1
102
RTVSPropertyOp40
 70
     1
102
RTVSPropertyOp41
 70
     1
102
RTVSPropertyOp42
 70
     1
102
RTVSPropertyOp43
 70
     1
102
RTVSPropertyOp44
 70
     1
102
RTVSPropertyOp45
 70
     1
102
RTVSPropertyOp46
 70
     1
102
RTVSPropertyOp47
 70
     1
102
RTVSPropertyOp48
 70
     1
102
RTVSPropertyOp49
 70
     1
102
RTVSPropertyOp50
 70
     1
102
RTVSPropertyOp51
 70
     0
102
RTVSPropertyOp52
 70
     0
102
RTVSPropertyOp53
 70
     1
102
RTVSPropertyOp54
 70
     1
102
RTVSPropertyOp55
 70
     1
102
RTVSPropertyOp56
 70
     1
102
RTVSPropertyOp57
 70
     1
102
RTVSPost2010Prop28
280
     1
102
RTVSPost2010PropOp28
 70
     1
102
RTVSPost2010Prop29
280
     1
102
RTVSPost2010PropOp29
 70
     1
102
RTVSPost2010Prop30
280
     0
102
RTVSPost2010PropOp30
 70
     1
102
RTVSPost2010Prop31
280
     0
102
RTVSPost2010PropOp31
 70
     1
102
RTVSPost2010Prop32
280
     0
102
RTVSPost2010PropOp32
 70
     1
102
RTVSPost2010Prop33
280
     0
102
RTVSPost2010PropOp33
 70
     1
102
RTVSPost2010Prop34
280
     0
102
RTVSPost2010PropOp34
 70
     1
102
RTVSPost2010Prop35
280
     0
102
RTVSPost2010PropOp35
 70
     1
102
RTVSPost2010Prop36
280
     0
102
RTVSPost2010PropOp36
 70
     1
102
RTVSPost2010Prop37
 90
       50
102
RTVSPost2010PropOp37
 70
     1
102
RTVSPost2010Prop38
140
0.0
102
RTVSPost2010PropOp38
 70
     1
102
RTVSPost2010Prop39
140
1.0
102
RTVSPost2010PropOp39
 70
     1
102
RTVSPost2010Prop40
 90
        0
102
RTVSPost2010PropOp40
 70
     1
102
RTVSPost2010Prop41ColorIndex
 90
       18
102
RTVSPost2010Prop41ColorRGB
 90
        0
102
RTVSPost2010PropOp41
 70
     1
102
RTVSPost2010Prop42
 90
       50
102
RTVSPost2010PropOp42
 70
     1
102
RTVSPost2010Prop43
 90
        3
102
RTVSPost2010PropOp43
 70
     1
102
RTVSPost2010Prop44ColorIndex
 90
        5
102
RTVSPost2010Prop44ColorRGB
 90
      255
102
RTVSPost2010PropOp44
 70
     1
102
RTVSPost2010Prop45
280
     0
102
RTVSPost2010PropOp45
 70
     1
102
RTVSPost2010Prop46
 90
       50
102
RTVSPost2010PropOp46
 70
     1
102
RTVSPost2010Prop47
 90
       50
102
RTVSPost2010PropOp47
 70
     1
102
RTVSPost2010Prop48
 90
       50
102
RTVSPost2010PropOp48
 70
     1
102
RTVSPost2010Prop49
280
     0
102
RTVSPost2010PropOp49
 70
     1
102
RTVSPost2010Prop50
 90
       50
102
RTVSPost2010PropOp50
 70
     1
102
RTVSPost2010Prop51ColorIndex
 90
      256
102
RTVSPost2010Prop51ColorRGB
 90
-16777216
102
RTVSPost2010PropOp51
 70
     0
102
RTVSPost2010Prop52
140
1.0
102
RTVSPost2010PropOp52
 70
     0
102
RTVSPost2010Prop53
 90
        2
102
RTVSPost2010PropOp53
 70
     1
102
RTVSPost2010Prop54
  1
strokes_ogs.tif
102
RTVSPost2010PropOp54
 70
     1
102
RTVSPost2010Prop55
280
     0
102
RTVSPost2010PropOp55
 70
     1
102
RTVSPost2010Prop56
140
1.0
102
RTVSPost2010PropOp56
 70
     1
102
RTVSPost2010Prop57
140
1.0
102
RTVSPost2010PropOp57
 70
     1
  0
XRECORD
  5
40A
102
{ACAD_REACTORS
330
409
102
}
330
409
100
AcDbXrecord
280
     1
102
RTVSPropertyOp0
 70
     1
102
RTVSPropertyOp1
 70
     1
102
RTVSPropertyOp2
 70
     1
102
RTVSPropertyOp3
 70
     1
102
RTVSPropertyOp4
 70
     1
102
RTVSPropertyOp5
 70
     1
102
RTVSPropertyOp6
 70
     1
102
RTVSPropertyOp7
 70
     1
102
RTVSPropertyOp8
 70
     1
102
RTVSPropertyOp9
 70
     1
102
RTVSPropertyOp10
 70
     1
102
RTVSPropertyOp11
 70
     1
102
RTVSPropertyOp12
 70
     1
102
RTVSPropertyOp13
 70
     1
102
RTVSPropertyOp14
 70
     1
102
RTVSPropertyOp15
 70
     1
102
RTVSPropertyOp16
 70
     1
102
RTVSPropertyOp17
 70
     1
102
RTVSPropertyOp18
 70
     1
102
RTVSPropertyOp19
 70
     1
102
RTVSPropertyOp20
 70
     1
102
RTVSPropertyOp21
 70
     1
102
RTVSPropertyOp22
 70
     1
102
RTVSPropertyOp23
 70
     1
102
RTVSPropertyOp24
 70
     1
102
RTVSPropertyOp25
 70
     1
102
RTVSPropertyOp26
 70
     1
102
RTVSPropertyOp27
 70
     1
102
RTVSPropertyOp28
 70
     1
102
RTVSPropertyOp29
 70
     1
102
RTVSPropertyOp30
 70
     1
102
RTVSPropertyOp31
 70
     1
102
RTVSPropertyOp32
 70
     1
102
RTVSPropertyOp33
 70
     1
102
RTVSPropertyOp34
 70
     1
102
RTVSPropertyOp35
 70
     1
102
RTVSPropertyOp36
 70
     1
102
RTVSPropertyOp37
 70
     1
102
RTVSPropertyOp38
 70
     1
102
RTVSPropertyOp39
 70
     1
102
RTVSPropertyOp40
 70
     1
102
RTVSPropertyOp41
 70
     1
102
RTVSPropertyOp42
 70
     1
102
RTVSPropertyOp43
 70
     1
102
RTVSPropertyOp44
 70
     1
102
RTVSPropertyOp45
 70
     1
102
RTVSPropertyOp46
 70
     1
102
RTVSPropertyOp47
 70
     1
102
RTVSPropertyOp48
 70
     1
102
RTVSPropertyOp49
 70
     1
102
RTVSPropertyOp50
 70
     1
102
RTVSPropertyOp51
 70
     0
102
RTVSPropertyOp52
 70
     0
102
RTVSPropertyOp53
 70
     1
102
RTVSPropertyOp54
 70
     1
102
RTVSPropertyOp55
 70
     1
102
RTVSPropertyOp56
 70
     1
102
RTVSPropertyOp57
 70
     1
102
RTVSPost2010Prop28
280
     0
102
RTVSPost2010PropOp28
 70
     1
102
RTVSPost2010Prop29
280
     1
102
RTVSPost2010PropOp29
 70
     1
102
RTVSPost2010Prop30
280
     1
102
RTVSPost2010PropOp30
 70
     1
102
RTVSPost2010Prop31
280
     0
102
RTVSPost2010PropOp31
 70
     1
102
RTVSPost2010Prop32
280
     0
102
RTVSPost2010PropOp32
 70
     1
102
RTVSPost2010Prop33
280
     0
102
RTVSPost2010PropOp33
 70
     1
102
RTVSPost2010Prop34
280
     0
102
RTVSPost2010PropOp34
 70
     1
102
RTVSPost2010Prop35
280
     0
102
RTVSPost2010PropOp35
 70
     1
102
RTVSPost2010Prop36
280
     0
102
RTVSPost2010PropOp36
 70
     1
102
RTVSPost2010Prop37
 90
       50
102
RTVSPost2010PropOp37
 70
     1
102
RTVSPost2010Prop38
140
0.0
102
RTVSPost2010PropOp38
 70
     1
102
RTVSPost2010Prop39
140
1.0
102
RTVSPost2010PropOp39
 70
     1
102
RTVSPost2010Prop40
 90
        0
102
RTVSPost2010PropOp40
 70
     1
102
RTVSPost2010Prop41ColorIndex
 90
       18
102
RTVSPost2010Prop41ColorRGB
 90
        0
102
RTVSPost2010PropOp41
 70
     1
102
RTVSPost2010Prop42
 90
       50
102
RTVSPost2010PropOp42
 70
     1
102
RTVSPost2010Prop43
 90
        3
102
RTVSPost2010PropOp43
 70
     1
102
RTVSPost2010Prop44ColorIndex
 90
        5
102
RTVSPost2010Prop44ColorRGB
 90
      255
102
RTVSPost2010PropOp44
 70
     1
102
RTVSPost2010Prop45
280
     0
102
RTVSPost2010PropOp45
 70
     1
102
RTVSPost2010Prop46
 90
       50
102
RTVSPost2010PropOp46
 70
     1
102
RTVSPost2010Prop47
 90
       50
102
RTVSPost2010PropOp47
 70
     1
102
RTVSPost2010Prop48
 90
       50
102
RTVSPost2010PropOp48
 70
     1
102
RTVSPost2010Prop49
280
     0
102
RTVSPost2010PropOp49
 70
     1
102
RTVSPost2010Prop50
 90
       50
102
RTVSPost2010PropOp50
 70
     1
102
RTVSPost2010Prop51ColorIndex
 90
      256
102
RTVSPost2010Prop51ColorRGB
 90
-16777216
102
RTVSPost2010PropOp51
 70
     0
102
RTVSPost2010Prop52
140
1.0
102
RTVSPost2010PropOp52
 70
     0
102
RTVSPost2010Prop53
 90
        2
102
RTVSPost2010PropOp53
 70
     1
102
RTVSPost2010Prop54
  1
strokes_ogs.tif
102
RTVSPost2010PropOp54
 70
     1
102
RTVSPost2010Prop55
280
     0
102
RTVSPost2010PropOp55
 70
     1
102
RTVSPost2010Prop56
140
1.0
102
RTVSPost2010PropOp56
 70
     1
102
RTVSPost2010Prop57
140
1.0
102
RTVSPost2010PropOp57
 70
     1
  0
XRECORD
  5
412
102
{ACAD_REACTORS
330
411
102
}
330
411
100
AcDbXrecord
280
     1
102
RTVSPropertyOp0
 70
     1
102
RTVSPropertyOp1
 70
     1
102
RTVSPropertyOp2
 70
     1
102
RTVSPropertyOp3
 70
     1
102
RTVSPropertyOp4
 70
     1
102
RTVSPropertyOp5
 70
     1
102
RTVSPropertyOp6
 70
     1
102
RTVSPropertyOp7
 70
     1
102
RTVSPropertyOp8
 70
     1
102
RTVSPropertyOp9
 70
     1
102
RTVSPropertyOp10
 70
     1
102
RTVSPropertyOp11
 70
     1
102
RTVSPropertyOp12
 70
     1
102
RTVSPropertyOp13
 70
     1
102
RTVSPropertyOp14
 70
     1
102
RTVSPropertyOp15
 70
     1
102
RTVSPropertyOp16
 70
     1
102
RTVSPropertyOp17
 70
     1
102
RTVSPropertyOp18
 70
     1
102
RTVSPropertyOp19
 70
     1
102
RTVSPropertyOp20
 70
     1
102
RTVSPropertyOp21
 70
     1
102
RTVSPropertyOp22
 70
     1
102
RTVSPropertyOp23
 70
     1
102
RTVSPropertyOp24
 70
     1
102
RTVSPropertyOp25
 70
     1
102
RTVSPropertyOp26
 70
     1
102
RTVSPropertyOp27
 70
     1
102
RTVSPropertyOp28
 70
     1
102
RTVSPropertyOp29
 70
     1
102
RTVSPropertyOp30
 70
     1
102
RTVSPropertyOp31
 70
     1
102
RTVSPropertyOp32
 70
     1
102
RTVSPropertyOp33
 70
     1
102
RTVSPropertyOp34
 70
     1
102
RTVSPropertyOp35
 70
     1
102
RTVSPropertyOp36
 70
     1
102
RTVSPropertyOp37
 70
     1
102
RTVSPropertyOp38
 70
     1
102
RTVSPropertyOp39
 70
     1
102
RTVSPropertyOp40
 70
     1
102
RTVSPropertyOp41
 70
     1
102
RTVSPropertyOp42
 70
     1
102
RTVSPropertyOp43
 70
     1
102
RTVSPropertyOp44
 70
     1
102
RTVSPropertyOp45
 70
     1
102
RTVSPropertyOp46
 70
     1
102
RTVSPropertyOp47
 70
     1
102
RTVSPropertyOp48
 70
     1
102
RTVSPropertyOp49
 70
     1
102
RTVSPropertyOp50
 70
     1
102
RTVSPropertyOp51
 70
     0
102
RTVSPropertyOp52
 70
     0
102
RTVSPropertyOp53
 70
     1
102
RTVSPropertyOp54
 70
     1
102
RTVSPropertyOp55
 70
     1
102
RTVSPropertyOp56
 70
     1
102
RTVSPropertyOp57
 70
     1
102
RTVSPost2010Prop28
280
     0
102
RTVSPost2010PropOp28
 70
     1
102
RTVSPost2010Prop29
280
     1
102
RTVSPost2010PropOp29
 70
     1
102
RTVSPost2010Prop30
280
     1
102
RTVSPost2010PropOp30
 70
     1
102
RTVSPost2010Prop31
280
     0
102
RTVSPost2010PropOp31
 70
     1
102
RTVSPost2010Prop32
280
     0
102
RTVSPost2010PropOp32
 70
     1
102
RTVSPost2010Prop33
280
     0
102
RTVSPost2010PropOp33
 70
     1
102
RTVSPost2010Prop34
280
     0
102
RTVSPost2010PropOp34
 70
     1
102
RTVSPost2010Prop35
280
     0
102
RTVSPost2010PropOp35
 70
     1
102
RTVSPost2010Prop36
280
     0
102
RTVSPost2010PropOp36
 70
     1
102
RTVSPost2010Prop37
 90
       50
102
RTVSPost2010PropOp37
 70
     1
102
RTVSPost2010Prop38
140
0.0
102
RTVSPost2010PropOp38
 70
     1
102
RTVSPost2010Prop39
140
1.0
102
RTVSPost2010PropOp39
 70
     1
102
RTVSPost2010Prop40
 90
        0
102
RTVSPost2010PropOp40
 70
     1
102
RTVSPost2010Prop41ColorIndex
 90
       18
102
RTVSPost2010Prop41ColorRGB
 90
        0
102
RTVSPost2010PropOp41
 70
     1
102
RTVSPost2010Prop42
 90
       50
102
RTVSPost2010PropOp42
 70
     1
102
RTVSPost2010Prop43
 90
        3
102
RTVSPost2010PropOp43
 70
     1
102
RTVSPost2010Prop44ColorIndex
 90
        5
102
RTVSPost2010Prop44ColorRGB
 90
      255
102
RTVSPost2010PropOp44
 70
     1
102
RTVSPost2010Prop45
280
     0
102
RTVSPost2010PropOp45
 70
     1
102
RTVSPost2010Prop46
 90
       50
102
RTVSPost2010PropOp46
 70
     1
102
RTVSPost2010Prop47
 90
       50
102
RTVSPost2010PropOp47
 70
     1
102
RTVSPost2010Prop48
 90
       50
102
RTVSPost2010PropOp48
 70
     1
102
RTVSPost2010Prop49
280
     0
102
RTVSPost2010PropOp49
 70
     1
102
RTVSPost2010Prop50
 90
       50
102
RTVSPost2010PropOp50
 70
     1
102
RTVSPost2010Prop51ColorIndex
 90
      256
102
RTVSPost2010Prop51ColorRGB
 90
-16777216
102
RTVSPost2010PropOp51
 70
     0
102
RTVSPost2010Prop52
140
1.0
102
RTVSPost2010PropOp52
 70
     0
102
RTVSPost2010Prop53
 90
        2
102
RTVSPost2010PropOp53
 70
     1
102
RTVSPost2010Prop54
  1
strokes_ogs.tif
102
RTVSPost2010PropOp54
 70
     1
102
RTVSPost2010Prop55
280
     0
102
RTVSPost2010PropOp55
 70
     1
102
RTVSPost2010Prop56
140
1.0
102
RTVSPost2010PropOp56
 70
     1
102
RTVSPost2010Prop57
140
1.0
102
RTVSPost2010PropOp57
 70
     1
  0
XRECORD
  5
41A
102
{ACAD_REACTORS
330
419
102
}
330
419
100
AcDbXrecord
280
     1
102
RTVSPropertyOp0
 70
     1
102
RTVSPropertyOp1
 70
     1
102
RTVSPropertyOp2
 70
     1
102
RTVSPropertyOp3
 70
     1
102
RTVSPropertyOp4
 70
     1
102
RTVSPropertyOp5
 70
     1
102
RTVSPropertyOp6
 70
     1
102
RTVSPropertyOp7
 70
     1
102
RTVSPropertyOp8
 70
     1
102
RTVSPropertyOp9
 70
     1
102
RTVSPropertyOp10
 70
     1
102
RTVSPropertyOp11
 70
     1
102
RTVSPropertyOp12
 70
     1
102
RTVSPropertyOp13
 70
     1
102
RTVSPropertyOp14
 70
     1
102
RTVSPropertyOp15
 70
     1
102
RTVSPropertyOp16
 70
     1
102
RTVSPropertyOp17
 70
     1
102
RTVSPropertyOp18
 70
     1
102
RTVSPropertyOp19
 70
     1
102
RTVSPropertyOp20
 70
     1
102
RTVSPropertyOp21
 70
     1
102
RTVSPropertyOp22
 70
     1
102
RTVSPropertyOp23
 70
     1
102
RTVSPropertyOp24
 70
     1
102
RTVSPropertyOp25
 70
     1
102
RTVSPropertyOp26
 70
     1
102
RTVSPropertyOp27
 70
     1
102
RTVSPropertyOp28
 70
     1
102
RTVSPropertyOp29
 70
     1
102
RTVSPropertyOp30
 70
     1
102
RTVSPropertyOp31
 70
     1
102
RTVSPropertyOp32
 70
     1
102
RTVSPropertyOp33
 70
     1
102
RTVSPropertyOp34
 70
     1
102
RTVSPropertyOp35
 70
     1
102
RTVSPropertyOp36
 70
     1
102
RTVSPropertyOp37
 70
     1
102
RTVSPropertyOp38
 70
     1
102
RTVSPropertyOp39
 70
     1
102
RTVSPropertyOp40
 70
     1
102
RTVSPropertyOp41
 70
     1
102
RTVSPropertyOp42
 70
     1
102
RTVSPropertyOp43
 70
     1
102
RTVSPropertyOp44
 70
     1
102
RTVSPropertyOp45
 70
     1
102
RTVSPropertyOp46
 70
     1
102
RTVSPropertyOp47
 70
     1
102
RTVSPropertyOp48
 70
     1
102
RTVSPropertyOp49
 70
     1
102
RTVSPropertyOp50
 70
     1
102
RTVSPropertyOp51
 70
     0
102
RTVSPropertyOp52
 70
     0
102
RTVSPropertyOp53
 70
     1
102
RTVSPropertyOp54
 70
     1
102
RTVSPropertyOp55
 70
     1
102
RTVSPropertyOp56
 70
     1
102
RTVSPropertyOp57
 70
     1
102
RTVSPost2010Prop28
280
     0
102
RTVSPost2010PropOp28
 70
     1
102
RTVSPost2010Prop29
280
     1
102
RTVSPost2010PropOp29
 70
     1
102
RTVSPost2010Prop30
280
     1
102
RTVSPost2010PropOp30
 70
     1
102
RTVSPost2010Prop31
280
     0
102
RTVSPost2010PropOp31
 70
     1
102
RTVSPost2010Prop32
280
     0
102
RTVSPost2010PropOp32
 70
     1
102
RTVSPost2010Prop33
280
     0
102
RTVSPost2010PropOp33
 70
     1
102
RTVSPost2010Prop34
280
     0
102
RTVSPost2010PropOp34
 70
     1
102
RTVSPost2010Prop35
280
     0
102
RTVSPost2010PropOp35
 70
     1
102
RTVSPost2010Prop36
280
     0
102
RTVSPost2010PropOp36
 70
     1
102
RTVSPost2010Prop37
 90
       50
102
RTVSPost2010PropOp37
 70
     1
102
RTVSPost2010Prop38
140
0.0
102
RTVSPost2010PropOp38
 70
     1
102
RTVSPost2010Prop39
140
1.0
102
RTVSPost2010PropOp39
 70
     1
102
RTVSPost2010Prop40
 90
        0
102
RTVSPost2010PropOp40
 70
     1
102
RTVSPost2010Prop41ColorIndex
 90
       18
102
RTVSPost2010Prop41ColorRGB
 90
        0
102
RTVSPost2010PropOp41
 70
     1
102
RTVSPost2010Prop42
 90
       50
102
RTVSPost2010PropOp42
 70
     1
102
RTVSPost2010Prop43
 90
        3
102
RTVSPost2010PropOp43
 70
     1
102
RTVSPost2010Prop44ColorIndex
 90
        5
102
RTVSPost2010Prop44ColorRGB
 90
      255
102
RTVSPost2010PropOp44
 70
     1
102
RTVSPost2010Prop45
280
     0
102
RTVSPost2010PropOp45
 70
     1
102
RTVSPost2010Prop46
 90
       50
102
RTVSPost2010PropOp46
 70
     1
102
RTVSPost2010Prop47
 90
       50
102
RTVSPost2010PropOp47
 70
     1
102
RTVSPost2010Prop48
 90
       50
102
RTVSPost2010PropOp48
 70
     1
102
RTVSPost2010Prop49
280
     0
102
RTVSPost2010PropOp49
 70
     1
102
RTVSPost2010Prop50
 90
       50
102
RTVSPost2010PropOp50
 70
     1
102
RTVSPost2010Prop51ColorIndex
 90
      256
102
RTVSPost2010Prop51ColorRGB
 90
-16777216
102
RTVSPost2010PropOp51
 70
     0
102
RTVSPost2010Prop52
140
1.0
102
RTVSPost2010PropOp52
 70
     0
102
RTVSPost2010Prop53
 90
        2
102
RTVSPost2010PropOp53
 70
     1
102
RTVSPost2010Prop54
  1
strokes_ogs.tif
102
RTVSPost2010PropOp54
 70
     1
102
RTVSPost2010Prop55
280
     0
102
RTVSPost2010PropOp55
 70
     1
102
RTVSPost2010Prop56
140
1.0
102
RTVSPost2010PropOp56
 70
     1
102
RTVSPost2010Prop57
140
1.0
102
RTVSPost2010PropOp57
 70
     1
  0
XRECORD
  5
40E
102
{ACAD_REACTORS
330
40D
102
}
330
40D
100
AcDbXrecord
280
     1
102
RTVSPropertyOp0
 70
     1
102
RTVSPropertyOp1
 70
     1
102
RTVSPropertyOp2
 70
     1
102
RTVSPropertyOp3
 70
     1
102
RTVSPropertyOp4
 70
     1
102
RTVSPropertyOp5
 70
     1
102
RTVSPropertyOp6
 70
     1
102
RTVSPropertyOp7
 70
     1
102
RTVSPropertyOp8
 70
     1
102
RTVSPropertyOp9
 70
     1
102
RTVSPropertyOp10
 70
     1
102
RTVSPropertyOp11
 70
     1
102
RTVSPropertyOp12
 70
     1
102
RTVSPropertyOp13
 70
     1
102
RTVSPropertyOp14
 70
     1
102
RTVSPropertyOp15
 70
     1
102
RTVSPropertyOp16
 70
     1
102
RTVSPropertyOp17
 70
     1
102
RTVSPropertyOp18
 70
     1
102
RTVSPropertyOp19
 70
     1
102
RTVSPropertyOp20
 70
     1
102
RTVSPropertyOp21
 70
     1
102
RTVSPropertyOp22
 70
     1
102
RTVSPropertyOp23
 70
     1
102
RTVSPropertyOp24
 70
     1
102
RTVSPropertyOp25
 70
     1
102
RTVSPropertyOp26
 70
     1
102
RTVSPropertyOp27
 70
     1
102
RTVSPropertyOp28
 70
     1
102
RTVSPropertyOp29
 70
     1
102
RTVSPropertyOp30
 70
     1
102
RTVSPropertyOp31
 70
     1
102
RTVSPropertyOp32
 70
     1
102
RTVSPropertyOp33
 70
     1
102
RTVSPropertyOp34
 70
     1
102
RTVSPropertyOp35
 70
     1
102
RTVSPropertyOp36
 70
     1
102
RTVSPropertyOp37
 70
     1
102
RTVSPropertyOp38
 70
     1
102
RTVSPropertyOp39
 70
     1
102
RTVSPropertyOp40
 70
     1
102
RTVSPropertyOp41
 70
     1
102
RTVSPropertyOp42
 70
     1
102
RTVSPropertyOp43
 70
     1
102
RTVSPropertyOp44
 70
     1
102
RTVSPropertyOp45
 70
     1
102
RTVSPropertyOp46
 70
     1
102
RTVSPropertyOp47
 70
     1
102
RTVSPropertyOp48
 70
     1
102
RTVSPropertyOp49
 70
     1
102
RTVSPropertyOp50
 70
     1
102
RTVSPropertyOp51
 70
     0
102
RTVSPropertyOp52
 70
     0
102
RTVSPropertyOp53
 70
     1
102
RTVSPropertyOp54
 70
     1
102
RTVSPropertyOp55
 70
     1
102
RTVSPropertyOp56
 70
     1
102
RTVSPropertyOp57
 70
     1
102
RTVSPost2010Prop28
280
     0
102
RTVSPost2010PropOp28
 70
     1
102
RTVSPost2010Prop29
280
     1
102
RTVSPost2010PropOp29
 70
     1
102
RTVSPost2010Prop30
280
     1
102
RTVSPost2010PropOp30
 70
     1
102
RTVSPost2010Prop31
280
     0
102
RTVSPost2010PropOp31
 70
     1
102
RTVSPost2010Prop32
280
     0
102
RTVSPost2010PropOp32
 70
     1
102
RTVSPost2010Prop33
280
     0
102
RTVSPost2010PropOp33
 70
     1
102
RTVSPost2010Prop34
280
     0
102
RTVSPost2010PropOp34
 70
     1
102
RTVSPost2010Prop35
280
     0
102
RTVSPost2010PropOp35
 70
     1
102
RTVSPost2010Prop36
280
     0
102
RTVSPost2010PropOp36
 70
     1
102
RTVSPost2010Prop37
 90
       50
102
RTVSPost2010PropOp37
 70
     1
102
RTVSPost2010Prop38
140
0.0
102
RTVSPost2010PropOp38
 70
     1
102
RTVSPost2010Prop39
140
1.0
102
RTVSPost2010PropOp39
 70
     1
102
RTVSPost2010Prop40
 90
        0
102
RTVSPost2010PropOp40
 70
     1
102
RTVSPost2010Prop41ColorIndex
 90
       18
102
RTVSPost2010Prop41ColorRGB
 90
        0
102
RTVSPost2010PropOp41
 70
     1
102
RTVSPost2010Prop42
 90
       50
102
RTVSPost2010PropOp42
 70
     1
102
RTVSPost2010Prop43
 90
        3
102
RTVSPost2010PropOp43
 70
     1
102
RTVSPost2010Prop44ColorIndex
 90
        5
102
RTVSPost2010Prop44ColorRGB
 90
      255
102
RTVSPost2010PropOp44
 70
     1
102
RTVSPost2010Prop45
280
     0
102
RTVSPost2010PropOp45
 70
     1
102
RTVSPost2010Prop46
 90
       50
102
RTVSPost2010PropOp46
 70
     1
102
RTVSPost2010Prop47
 90
       50
102
RTVSPost2010PropOp47
 70
     1
102
RTVSPost2010Prop48
 90
       50
102
RTVSPost2010PropOp48
 70
     1
102
RTVSPost2010Prop49
280
     0
102
RTVSPost2010PropOp49
 70
     1
102
RTVSPost2010Prop50
 90
       50
102
RTVSPost2010PropOp50
 70
     1
102
RTVSPost2010Prop51ColorIndex
 90
      256
102
RTVSPost2010Prop51ColorRGB
 90
-16777216
102
RTVSPost2010PropOp51
 70
     0
102
RTVSPost2010Prop52
140
1.0
102
RTVSPost2010PropOp52
 70
     0
102
RTVSPost2010Prop53
 90
        2
102
RTVSPost2010PropOp53
 70
     1
102
RTVSPost2010Prop54
  1
strokes_ogs.tif
102
RTVSPost2010PropOp54
 70
     1
102
RTVSPost2010Prop55
280
     0
102
RTVSPost2010PropOp55
 70
     1
102
RTVSPost2010Prop56
140
1.0
102
RTVSPost2010PropOp56
 70
     1
102
RTVSPost2010Prop57
140
1.0
102
RTVSPost2010PropOp57
 70
     1
  0
XRECORD
  5
410
102
{ACAD_REACTORS
330
40F
102
}
330
40F
100
AcDbXrecord
280
     1
102
RTVSPropertyOp0
 70
     1
102
RTVSPropertyOp1
 70
     1
102
RTVSPropertyOp2
 70
     1
102
RTVSPropertyOp3
 70
     1
102
RTVSPropertyOp4
 70
     1
102
RTVSPropertyOp5
 70
     1
102
RTVSPropertyOp6
 70
     1
102
RTVSPropertyOp7
 70
     1
102
RTVSPropertyOp8
 70
     1
102
RTVSPropertyOp9
 70
     1
102
RTVSPropertyOp10
 70
     1
102
RTVSPropertyOp11
 70
     1
102
RTVSPropertyOp12
 70
     1
102
RTVSPropertyOp13
 70
     1
102
RTVSPropertyOp14
 70
     1
102
RTVSPropertyOp15
 70
     1
102
RTVSPropertyOp16
 70
     1
102
RTVSPropertyOp17
 70
     1
102
RTVSPropertyOp18
 70
     1
102
RTVSPropertyOp19
 70
     1
102
RTVSPropertyOp20
 70
     1
102
RTVSPropertyOp21
 70
     1
102
RTVSPropertyOp22
 70
     1
102
RTVSPropertyOp23
 70
     1
102
RTVSPropertyOp24
 70
     1
102
RTVSPropertyOp25
 70
     1
102
RTVSPropertyOp26
 70
     1
102
RTVSPropertyOp27
 70
     1
102
RTVSPropertyOp28
 70
     1
102
RTVSPropertyOp29
 70
     1
102
RTVSPropertyOp30
 70
     1
102
RTVSPropertyOp31
 70
     1
102
RTVSPropertyOp32
 70
     1
102
RTVSPropertyOp33
 70
     1
102
RTVSPropertyOp34
 70
     1
102
RTVSPropertyOp35
 70
     1
102
RTVSPropertyOp36
 70
     1
102
RTVSPropertyOp37
 70
     1
102
RTVSPropertyOp38
 70
     1
102
RTVSPropertyOp39
 70
     1
102
RTVSPropertyOp40
 70
     1
102
RTVSPropertyOp41
 70
     1
102
RTVSPropertyOp42
 70
     1
102
RTVSPropertyOp43
 70
     1
102
RTVSPropertyOp44
 70
     1
102
RTVSPropertyOp45
 70
     1
102
RTVSPropertyOp46
 70
     1
102
RTVSPropertyOp47
 70
     1
102
RTVSPropertyOp48
 70
     1
102
RTVSPropertyOp49
 70
     1
102
RTVSPropertyOp50
 70
     1
102
RTVSPropertyOp51
 70
     0
102
RTVSPropertyOp52
 70
     0
102
RTVSPropertyOp53
 70
     1
102
RTVSPropertyOp54
 70
     1
102
RTVSPropertyOp55
 70
     1
102
RTVSPropertyOp56
 70
     1
102
RTVSPropertyOp57
 70
     1
102
RTVSPost2010Prop28
280
     0
102
RTVSPost2010PropOp28
 70
     1
102
RTVSPost2010Prop29
280
     1
102
RTVSPost2010PropOp29
 70
     1
102
RTVSPost2010Prop30
280
     1
102
RTVSPost2010PropOp30
 70
     1
102
RTVSPost2010Prop31
280
     0
102
RTVSPost2010PropOp31
 70
     1
102
RTVSPost2010Prop32
280
     0
102
RTVSPost2010PropOp32
 70
     1
102
RTVSPost2010Prop33
280
     0
102
RTVSPost2010PropOp33
 70
     1
102
RTVSPost2010Prop34
280
     0
102
RTVSPost2010PropOp34
 70
     1
102
RTVSPost2010Prop35
280
     0
102
RTVSPost2010PropOp35
 70
     1
102
RTVSPost2010Prop36
280
     0
102
RTVSPost2010PropOp36
 70
     1
102
RTVSPost2010Prop37
 90
       50
102
RTVSPost2010PropOp37
 70
     1
102
RTVSPost2010Prop38
140
0.0
102
RTVSPost2010PropOp38
 70
     1
102
RTVSPost2010Prop39
140
1.0
102
RTVSPost2010PropOp39
 70
     1
102
RTVSPost2010Prop40
 90
        0
102
RTVSPost2010PropOp40
 70
     1
102
RTVSPost2010Prop41ColorIndex
 90
       18
102
RTVSPost2010Prop41ColorRGB
 90
        0
102
RTVSPost2010PropOp41
 70
     1
102
RTVSPost2010Prop42
 90
       50
102
RTVSPost2010PropOp42
 70
     1
102
RTVSPost2010Prop43
 90
        3
102
RTVSPost2010PropOp43
 70
     1
102
RTVSPost2010Prop44ColorIndex
 90
        5
102
RTVSPost2010Prop44ColorRGB
 90
      255
102
RTVSPost2010PropOp44
 70
     1
102
RTVSPost2010Prop45
280
     0
102
RTVSPost2010PropOp45
 70
     1
102
RTVSPost2010Prop46
 90
       50
102
RTVSPost2010PropOp46
 70
     1
102
RTVSPost2010Prop47
 90
       50
102
RTVSPost2010PropOp47
 70
     1
102
RTVSPost2010Prop48
 90
       50
102
RTVSPost2010PropOp48
 70
     1
102
RTVSPost2010Prop49
280
     0
102
RTVSPost2010PropOp49
 70
     1
102
RTVSPost2010Prop50
 90
       50
102
RTVSPost2010PropOp50
 70
     1
102
RTVSPost2010Prop51ColorIndex
 90
      256
102
RTVSPost2010Prop51ColorRGB
 90
-16777216
102
RTVSPost2010PropOp51
 70
     0
102
RTVSPost2010Prop52
140
1.0
102
RTVSPost2010PropOp52
 70
     0
102
RTVSPost2010Prop53
 90
        2
102
RTVSPost2010PropOp53
 70
     1
102
RTVSPost2010Prop54
  1
strokes_ogs.tif
102
RTVSPost2010PropOp54
 70
     1
102
RTVSPost2010Prop55
280
     0
102
RTVSPost2010PropOp55
 70
     1
102
RTVSPost2010Prop56
140
1.0
102
RTVSPost2010PropOp56
 70
     1
102
RTVSPost2010Prop57
140
1.0
102
RTVSPost2010PropOp57
 70
     1
  0
XRECORD
  5
420
102
{ACAD_REACTORS
330
41F
102
}
330
41F
100
AcDbXrecord
280
     1
102
RTVSPropertyOp0
 70
     0
102
RTVSPropertyOp1
 70
     0
102
RTVSPropertyOp2
 70
     0
102
RTVSPropertyOp3
 70
     0
102
RTVSPropertyOp4
 70
     0
102
RTVSPropertyOp5
 70
     0
102
RTVSPropertyOp6
 70
     0
102
RTVSPropertyOp7
 70
     0
102
RTVSPropertyOp8
 70
     0
102
RTVSPropertyOp9
 70
     0
102
RTVSPropertyOp10
 70
     0
102
RTVSPropertyOp11
 70
     0
102
RTVSPropertyOp12
 70
     0
102
RTVSPropertyOp13
 70
     0
102
RTVSPropertyOp14
 70
     2
102
RTVSPropertyOp15
 70
     0
102
RTVSPropertyOp16
 70
     0
102
RTVSPropertyOp17
 70
     0
102
RTVSPropertyOp18
 70
     0
102
RTVSPropertyOp19
 70
     0
102
RTVSPropertyOp20
 70
     0
102
RTVSPropertyOp21
 70
     0
102
RTVSPropertyOp22
 70
     0
102
RTVSPropertyOp23
 70
     0
102
RTVSPropertyOp24
 70
     0
102
RTVSPropertyOp25
 70
     0
102
RTVSPropertyOp26
 70
     0
102
RTVSPropertyOp27
 70
     0
102
RTVSPropertyOp28
 70
     0
102
RTVSPropertyOp29
 70
     0
102
RTVSPropertyOp30
 70
     0
102
RTVSPropertyOp31
 70
     0
102
RTVSPropertyOp32
 70
     0
102
RTVSPropertyOp33
 70
     0
102
RTVSPropertyOp34
 70
     0
102
RTVSPropertyOp35
 70
     0
102
RTVSPropertyOp36
 70
     0
102
RTVSPropertyOp37
 70
     0
102
RTVSPropertyOp38
 70
     0
102
RTVSPropertyOp39
 70
     0
102
RTVSPropertyOp40
 70
     0
102
RTVSPropertyOp41
 70
     0
102
RTVSPropertyOp42
 70
     0
102
RTVSPropertyOp43
 70
     0
102
RTVSPropertyOp44
 70
     0
102
RTVSPropertyOp45
 70
     0
102
RTVSPropertyOp46
 70
     0
102
RTVSPropertyOp47
 70
     0
102
RTVSPropertyOp48
 70
     0
102
RTVSPropertyOp49
 70
     0
102
RTVSPropertyOp50
 70
     0
102
RTVSPropertyOp51
 70
     0
102
RTVSPropertyOp52
 70
     0
102
RTVSPropertyOp53
 70
     0
102
RTVSPropertyOp54
 70
     0
102
RTVSPropertyOp55
 70
     0
102
RTVSPropertyOp56
 70
     0
102
RTVSPropertyOp57
 70
     0
102
RTVSPost2010Prop28
280
     0
102
RTVSPost2010PropOp28
 70
     0
102
RTVSPost2010Prop29
280
     1
102
RTVSPost2010PropOp29
 70
     0
102
RTVSPost2010Prop30
280
     1
102
RTVSPost2010PropOp30
 70
     0
102
RTVSPost2010Prop31
280
     0
102
RTVSPost2010PropOp31
 70
     0
102
RTVSPost2010Prop32
280
     0
102
RTVSPost2010PropOp32
 70
     0
102
RTVSPost2010Prop33
280
     0
102
RTVSPost2010PropOp33
 70
     0
102
RTVSPost2010Prop34
280
     0
102
RTVSPost2010PropOp34
 70
     0
102
RTVSPost2010Prop35
280
     0
102
RTVSPost2010PropOp35
 70
     0
102
RTVSPost2010Prop36
280
     0
102
RTVSPost2010PropOp36
 70
     0
102
RTVSPost2010Prop37
 90
       50
102
RTVSPost2010PropOp37
 70
     0
102
RTVSPost2010Prop38
140
0.0
102
RTVSPost2010PropOp38
 70
     0
102
RTVSPost2010Prop39
140
1.0
102
RTVSPost2010PropOp39
 70
     0
102
RTVSPost2010Prop40
 90
        0
102
RTVSPost2010PropOp40
 70
     0
102
RTVSPost2010Prop41ColorIndex
 90
       18
102
RTVSPost2010Prop41ColorRGB
 90
        0
102
RTVSPost2010PropOp41
 70
     0
102
RTVSPost2010Prop42
 90
       50
102
RTVSPost2010PropOp42
 70
     0
102
RTVSPost2010Prop43
 90
        3
102
RTVSPost2010PropOp43
 70
     0
102
RTVSPost2010Prop44ColorIndex
 90
        5
102
RTVSPost2010Prop44ColorRGB
 90
      255
102
RTVSPost2010PropOp44
 70
     0
102
RTVSPost2010Prop45
280
     0
102
RTVSPost2010PropOp45
 70
     0
102
RTVSPost2010Prop46
 90
       50
102
RTVSPost2010PropOp46
 70
     0
102
RTVSPost2010Prop47
 90
       50
102
RTVSPost2010PropOp47
 70
     0
102
RTVSPost2010Prop48
 90
       50
102
RTVSPost2010PropOp48
 70
     0
102
RTVSPost2010Prop49
280
     0
102
RTVSPost2010PropOp49
 70
     0
102
RTVSPost2010Prop50
 90
       50
102
RTVSPost2010PropOp50
 70
     0
102
RTVSPost2010Prop51ColorIndex
 90
      256
102
RTVSPost2010Prop51ColorRGB
 90
-16777216
102
RTVSPost2010PropOp51
 70
     0
102
RTVSPost2010Prop52
140
1.0
102
RTVSPost2010PropOp52
 70
     0
102
RTVSPost2010Prop53
 90
        2
102
RTVSPost2010PropOp53
 70
     0
102
RTVSPost2010Prop54
  1
strokes_ogs.tif
102
RTVSPost2010PropOp54
 70
     0
102
RTVSPost2010Prop55
280
     0
102
RTVSPost2010PropOp55
 70
     0
102
RTVSPost2010Prop56
140
1.0
102
RTVSPost2010PropOp56
 70
     0
102
RTVSPost2010Prop57
140
1.0
102
RTVSPost2010PropOp57
 70
     0
  0
XRECORD
  5
418
102
{ACAD_REACTORS
330
417
102
}
330
417
100
AcDbXrecord
280
     1
102
RTVSPropertyOp0
 70
     1
102
RTVSPropertyOp1
 70
     1
102
RTVSPropertyOp2
 70
     1
102
RTVSPropertyOp3
 70
     1
102
RTVSPropertyOp4
 70
     1
102
RTVSPropertyOp5
 70
     1
102
RTVSPropertyOp6
 70
     1
102
RTVSPropertyOp7
 70
     1
102
RTVSPropertyOp8
 70
     1
102
RTVSPropertyOp9
 70
     1
102
RTVSPropertyOp10
 70
     1
102
RTVSPropertyOp11
 70
     1
102
RTVSPropertyOp12
 70
     1
102
RTVSPropertyOp13
 70
     1
102
RTVSPropertyOp14
 70
     1
102
RTVSPropertyOp15
 70
     1
102
RTVSPropertyOp16
 70
     1
102
RTVSPropertyOp17
 70
     1
102
RTVSPropertyOp18
 70
     1
102
RTVSPropertyOp19
 70
     1
102
RTVSPropertyOp20
 70
     1
102
RTVSPropertyOp21
 70
     1
102
RTVSPropertyOp22
 70
     1
102
RTVSPropertyOp23
 70
     1
102
RTVSPropertyOp24
 70
     1
102
RTVSPropertyOp25
 70
     1
102
RTVSPropertyOp26
 70
     1
102
RTVSPropertyOp27
 70
     1
102
RTVSPropertyOp28
 70
     1
102
RTVSPropertyOp29
 70
     1
102
RTVSPropertyOp30
 70
     1
102
RTVSPropertyOp31
 70
     1
102
RTVSPropertyOp32
 70
     1
102
RTVSPropertyOp33
 70
     1
102
RTVSPropertyOp34
 70
     1
102
RTVSPropertyOp35
 70
     1
102
RTVSPropertyOp36
 70
     1
102
RTVSPropertyOp37
 70
     1
102
RTVSPropertyOp38
 70
     1
102
RTVSPropertyOp39
 70
     1
102
RTVSPropertyOp40
 70
     1
102
RTVSPropertyOp41
 70
     1
102
RTVSPropertyOp42
 70
     1
102
RTVSPropertyOp43
 70
     1
102
RTVSPropertyOp44
 70
     1
102
RTVSPropertyOp45
 70
     1
102
RTVSPropertyOp46
 70
     1
102
RTVSPropertyOp47
 70
     1
102
RTVSPropertyOp48
 70
     1
102
RTVSPropertyOp49
 70
     1
102
RTVSPropertyOp50
 70
     1
102
RTVSPropertyOp51
 70
     0
102
RTVSPropertyOp52
 70
     0
102
RTVSPropertyOp53
 70
     1
102
RTVSPropertyOp54
 70
     1
102
RTVSPropertyOp55
 70
     1
102
RTVSPropertyOp56
 70
     1
102
RTVSPropertyOp57
 70
     1
102
RTVSPost2010Prop28
280
     0
102
RTVSPost2010PropOp28
 70
     1
102
RTVSPost2010Prop29
280
     1
102
RTVSPost2010PropOp29
 70
     1
102
RTVSPost2010Prop30
280
     1
102
RTVSPost2010PropOp30
 70
     1
102
RTVSPost2010Prop31
280
     0
102
RTVSPost2010PropOp31
 70
     1
102
RTVSPost2010Prop32
280
     0
102
RTVSPost2010PropOp32
 70
     1
102
RTVSPost2010Prop33
280
     0
102
RTVSPost2010PropOp33
 70
     1
102
RTVSPost2010Prop34
280
     0
102
RTVSPost2010PropOp34
 70
     1
102
RTVSPost2010Prop35
280
     0
102
RTVSPost2010PropOp35
 70
     1
102
RTVSPost2010Prop36
280
     0
102
RTVSPost2010PropOp36
 70
     1
102
RTVSPost2010Prop37
 90
       50
102
RTVSPost2010PropOp37
 70
     1
102
RTVSPost2010Prop38
140
0.0
102
RTVSPost2010PropOp38
 70
     1
102
RTVSPost2010Prop39
140
1.0
102
RTVSPost2010PropOp39
 70
     1
102
RTVSPost2010Prop40
 90
        0
102
RTVSPost2010PropOp40
 70
     1
102
RTVSPost2010Prop41ColorIndex
 90
       18
102
RTVSPost2010Prop41ColorRGB
 90
        0
102
RTVSPost2010PropOp41
 70
     1
102
RTVSPost2010Prop42
 90
       50
102
RTVSPost2010PropOp42
 70
     1
102
RTVSPost2010Prop43
 90
        3
102
RTVSPost2010PropOp43
 70
     1
102
RTVSPost2010Prop44ColorIndex
 90
        5
102
RTVSPost2010Prop44ColorRGB
 90
      255
102
RTVSPost2010PropOp44
 70
     1
102
RTVSPost2010Prop45
280
     0
102
RTVSPost2010PropOp45
 70
     1
102
RTVSPost2010Prop46
 90
       50
102
RTVSPost2010PropOp46
 70
     1
102
RTVSPost2010Prop47
 90
       50
102
RTVSPost2010PropOp47
 70
     1
102
RTVSPost2010Prop48
 90
       50
102
RTVSPost2010PropOp48
 70
     1
102
RTVSPost2010Prop49
280
     0
102
RTVSPost2010PropOp49
 70
     1
102
RTVSPost2010Prop50
 90
       50
102
RTVSPost2010PropOp50
 70
     1
102
RTVSPost2010Prop51ColorIndex
 90
      256
102
RTVSPost2010Prop51ColorRGB
 90
-16777216
102
RTVSPost2010PropOp51
 70
     0
102
RTVSPost2010Prop52
140
1.0
102
RTVSPost2010PropOp52
 70
     0
102
RTVSPost2010Prop53
 90
        2
102
RTVSPost2010PropOp53
 70
     1
102
RTVSPost2010Prop54
  1
strokes_ogs.tif
102
RTVSPost2010PropOp54
 70
     1
102
RTVSPost2010Prop55
280
     0
102
RTVSPost2010PropOp55
 70
     1
102
RTVSPost2010Prop56
140
1.0
102
RTVSPost2010PropOp56
 70
     1
102
RTVSPost2010Prop57
140
1.0
102
RTVSPost2010PropOp57
 70
     1
  0
XRECORD
  5
3FC
102
{ACAD_REACTORS
330
3FB
102
}
330
3FB
100
AcDbXrecord
280
     1
102
RTVSPropertyOp0
 70
     1
102
RTVSPropertyOp1
 70
     1
102
RTVSPropertyOp2
 70
     1
102
RTVSPropertyOp3
 70
     1
102
RTVSPropertyOp4
 70
     1
102
RTVSPropertyOp5
 70
     1
102
RTVSPropertyOp6
 70
     1
102
RTVSPropertyOp7
 70
     1
102
RTVSPropertyOp8
 70
     1
102
RTVSPropertyOp9
 70
     1
102
RTVSPropertyOp10
 70
     1
102
RTVSPropertyOp11
 70
     1
102
RTVSPropertyOp12
 70
     1
102
RTVSPropertyOp13
 70
     1
102
RTVSPropertyOp14
 70
     1
102
RTVSPropertyOp15
 70
     1
102
RTVSPropertyOp16
 70
     1
102
RTVSPropertyOp17
 70
     1
102
RTVSPropertyOp18
 70
     1
102
RTVSPropertyOp19
 70
     1
102
RTVSPropertyOp20
 70
     1
102
RTVSPropertyOp21
 70
     1
102
RTVSPropertyOp22
 70
     1
102
RTVSPropertyOp23
 70
     1
102
RTVSPropertyOp24
 70
     1
102
RTVSPropertyOp25
 70
     1
102
RTVSPropertyOp26
 70
     1
102
RTVSPropertyOp27
 70
     1
102
RTVSPropertyOp28
 70
     1
102
RTVSPropertyOp29
 70
     1
102
RTVSPropertyOp30
 70
     1
102
RTVSPropertyOp31
 70
     1
102
RTVSPropertyOp32
 70
     1
102
RTVSPropertyOp33
 70
     1
102
RTVSPropertyOp34
 70
     1
102
RTVSPropertyOp35
 70
     1
102
RTVSPropertyOp36
 70
     1
102
RTVSPropertyOp37
 70
     1
102
RTVSPropertyOp38
 70
     1
102
RTVSPropertyOp39
 70
     1
102
RTVSPropertyOp40
 70
     1
102
RTVSPropertyOp41
 70
     1
102
RTVSPropertyOp42
 70
     1
102
RTVSPropertyOp43
 70
     1
102
RTVSPropertyOp44
 70
     1
102
RTVSPropertyOp45
 70
     1
102
RTVSPropertyOp46
 70
     1
102
RTVSPropertyOp47
 70
     1
102
RTVSPropertyOp48
 70
     1
102
RTVSPropertyOp49
 70
     1
102
RTVSPropertyOp50
 70
     1
102
RTVSPropertyOp51
 70
     0
102
RTVSPropertyOp52
 70
     0
102
RTVSPropertyOp53
 70
     1
102
RTVSPropertyOp54
 70
     1
102
RTVSPropertyOp55
 70
     1
102
RTVSPropertyOp56
 70
     1
102
RTVSPropertyOp57
 70
     1
102
RTVSPost2010Prop28
280
     0
102
RTVSPost2010PropOp28
 70
     1
102
RTVSPost2010Prop29
280
     1
102
RTVSPost2010PropOp29
 70
     1
102
RTVSPost2010Prop30
280
     1
102
RTVSPost2010PropOp30
 70
     1
102
RTVSPost2010Prop31
280
     0
102
RTVSPost2010PropOp31
 70
     1
102
RTVSPost2010Prop32
280
     0
102
RTVSPost2010PropOp32
 70
     1
102
RTVSPost2010Prop33
280
     0
102
RTVSPost2010PropOp33
 70
     1
102
RTVSPost2010Prop34
280
     0
102
RTVSPost2010PropOp34
 70
     1
102
RTVSPost2010Prop35
280
     0
102
RTVSPost2010PropOp35
 70
     1
102
RTVSPost2010Prop36
280
     0
102
RTVSPost2010PropOp36
 70
     1
102
RTVSPost2010Prop37
 90
       50
102
RTVSPost2010PropOp37
 70
     1
102
RTVSPost2010Prop38
140
0.0
102
RTVSPost2010PropOp38
 70
     1
102
RTVSPost2010Prop39
140
1.0
102
RTVSPost2010PropOp39
 70
     1
102
RTVSPost2010Prop40
 90
        0
102
RTVSPost2010PropOp40
 70
     1
102
RTVSPost2010Prop41ColorIndex
 90
       18
102
RTVSPost2010Prop41ColorRGB
 90
        0
102
RTVSPost2010PropOp41
 70
     1
102
RTVSPost2010Prop42
 90
       50
102
RTVSPost2010PropOp42
 70
     1
102
RTVSPost2010Prop43
 90
        3
102
RTVSPost2010PropOp43
 70
     1
102
RTVSPost2010Prop44ColorIndex
 90
        5
102
RTVSPost2010Prop44ColorRGB
 90
      255
102
RTVSPost2010PropOp44
 70
     1
102
RTVSPost2010Prop45
280
     0
102
RTVSPost2010PropOp45
 70
     1
102
RTVSPost2010Prop46
 90
       50
102
RTVSPost2010PropOp46
 70
     1
102
RTVSPost2010Prop47
 90
       50
102
RTVSPost2010PropOp47
 70
     1
102
RTVSPost2010Prop48
 90
       50
102
RTVSPost2010PropOp48
 70
     1
102
RTVSPost2010Prop49
280
     0
102
RTVSPost2010PropOp49
 70
     1
102
RTVSPost2010Prop50
 90
       50
102
RTVSPost2010PropOp50
 70
     1
102
RTVSPost2010Prop51ColorIndex
 90
      256
102
RTVSPost2010Prop51ColorRGB
 90
-16777216
102
RTVSPost2010PropOp51
 70
     0
102
RTVSPost2010Prop52
140
1.0
102
RTVSPost2010PropOp52
 70
     0
102
RTVSPost2010Prop53
 90
        2
102
RTVSPost2010PropOp53
 70
     1
102
RTVSPost2010Prop54
  1
strokes_ogs.tif
102
RTVSPost2010PropOp54
 70
     1
102
RTVSPost2010Prop55
280
     0
102
RTVSPost2010PropOp55
 70
     1
102
RTVSPost2010Prop56
140
1.0
102
RTVSPost2010PropOp56
 70
     1
102
RTVSPost2010Prop57
140
1.0
102
RTVSPost2010PropOp57
 70
     1
  0
XRECORD
  5
3FE
102
{ACAD_REACTORS
330
3FD
102
}
330
3FD
100
AcDbXrecord
280
     1
102
RTVSPropertyOp0
 70
     1
102
RTVSPropertyOp1
 70
     1
102
RTVSPropertyOp2
 70
     1
102
RTVSPropertyOp3
 70
     1
102
RTVSPropertyOp4
 70
     1
102
RTVSPropertyOp5
 70
     1
102
RTVSPropertyOp6
 70
     1
102
RTVSPropertyOp7
 70
     1
102
RTVSPropertyOp8
 70
     1
102
RTVSPropertyOp9
 70
     1
102
RTVSPropertyOp10
 70
     1
102
RTVSPropertyOp11
 70
     1
102
RTVSPropertyOp12
 70
     1
102
RTVSPropertyOp13
 70
     1
102
RTVSPropertyOp14
 70
     1
102
RTVSPropertyOp15
 70
     1
102
RTVSPropertyOp16
 70
     1
102
RTVSPropertyOp17
 70
     1
102
RTVSPropertyOp18
 70
     1
102
RTVSPropertyOp19
 70
     1
102
RTVSPropertyOp20
 70
     1
102
RTVSPropertyOp21
 70
     1
102
RTVSPropertyOp22
 70
     1
102
RTVSPropertyOp23
 70
     1
102
RTVSPropertyOp24
 70
     1
102
RTVSPropertyOp25
 70
     1
102
RTVSPropertyOp26
 70
     1
102
RTVSPropertyOp27
 70
     1
102
RTVSPropertyOp28
 70
     1
102
RTVSPropertyOp29
 70
     1
102
RTVSPropertyOp30
 70
     1
102
RTVSPropertyOp31
 70
     1
102
RTVSPropertyOp32
 70
     1
102
RTVSPropertyOp33
 70
     1
102
RTVSPropertyOp34
 70
     1
102
RTVSPropertyOp35
 70
     1
102
RTVSPropertyOp36
 70
     1
102
RTVSPropertyOp37
 70
     1
102
RTVSPropertyOp38
 70
     1
102
RTVSPropertyOp39
 70
     1
102
RTVSPropertyOp40
 70
     1
102
RTVSPropertyOp41
 70
     1
102
RTVSPropertyOp42
 70
     1
102
RTVSPropertyOp43
 70
     1
102
RTVSPropertyOp44
 70
     1
102
RTVSPropertyOp45
 70
     1
102
RTVSPropertyOp46
 70
     1
102
RTVSPropertyOp47
 70
     1
102
RTVSPropertyOp48
 70
     1
102
RTVSPropertyOp49
 70
     1
102
RTVSPropertyOp50
 70
     1
102
RTVSPropertyOp51
 70
     0
102
RTVSPropertyOp52
 70
     0
102
RTVSPropertyOp53
 70
     1
102
RTVSPropertyOp54
 70
     1
102
RTVSPropertyOp55
 70
     1
102
RTVSPropertyOp56
 70
     1
102
RTVSPropertyOp57
 70
     1
102
RTVSPost2010Prop28
280
     0
102
RTVSPost2010PropOp28
 70
     1
102
RTVSPost2010Prop29
280
     1
102
RTVSPost2010PropOp29
 70
     1
102
RTVSPost2010Prop30
280
     1
102
RTVSPost2010PropOp30
 70
     1
102
RTVSPost2010Prop31
280
     0
102
RTVSPost2010PropOp31
 70
     1
102
RTVSPost2010Prop32
280
     0
102
RTVSPost2010PropOp32
 70
     1
102
RTVSPost2010Prop33
280
     0
102
RTVSPost2010PropOp33
 70
     1
102
RTVSPost2010Prop34
280
     0
102
RTVSPost2010PropOp34
 70
     1
102
RTVSPost2010Prop35
280
     0
102
RTVSPost2010PropOp35
 70
     1
102
RTVSPost2010Prop36
280
     0
102
RTVSPost2010PropOp36
 70
     1
102
RTVSPost2010Prop37
 90
       50
102
RTVSPost2010PropOp37
 70
     1
102
RTVSPost2010Prop38
140
0.0
102
RTVSPost2010PropOp38
 70
     1
102
RTVSPost2010Prop39
140
1.0
102
RTVSPost2010PropOp39
 70
     1
102
RTVSPost2010Prop40
 90
        0
102
RTVSPost2010PropOp40
 70
     1
102
RTVSPost2010Prop41ColorIndex
 90
       18
102
RTVSPost2010Prop41ColorRGB
 90
        0
102
RTVSPost2010PropOp41
 70
     1
102
RTVSPost2010Prop42
 90
       50
102
RTVSPost2010PropOp42
 70
     1
102
RTVSPost2010Prop43
 90
        3
102
RTVSPost2010PropOp43
 70
     1
102
RTVSPost2010Prop44ColorIndex
 90
        5
102
RTVSPost2010Prop44ColorRGB
 90
      255
102
RTVSPost2010PropOp44
 70
     1
102
RTVSPost2010Prop45
280
     0
102
RTVSPost2010PropOp45
 70
     1
102
RTVSPost2010Prop46
 90
       50
102
RTVSPost2010PropOp46
 70
     1
102
RTVSPost2010Prop47
 90
       50
102
RTVSPost2010PropOp47
 70
     1
102
RTVSPost2010Prop48
 90
       50
102
RTVSPost2010PropOp48
 70
     1
102
RTVSPost2010Prop49
280
     0
102
RTVSPost2010PropOp49
 70
     1
102
RTVSPost2010Prop50
 90
       50
102
RTVSPost2010PropOp50
 70
     1
102
RTVSPost2010Prop51ColorIndex
 90
      256
102
RTVSPost2010Prop51ColorRGB
 90
-16777216
102
RTVSPost2010PropOp51
 70
     0
102
RTVSPost2010Prop52
140
1.0
102
RTVSPost2010PropOp52
 70
     0
102
RTVSPost2010Prop53
 90
        2
102
RTVSPost2010PropOp53
 70
     1
102
RTVSPost2010Prop54
  1
strokes_ogs.tif
102
RTVSPost2010PropOp54
 70
     1
102
RTVSPost2010Prop55
280
     0
102
RTVSPost2010PropOp55
 70
     1
102
RTVSPost2010Prop56
140
1.0
102
RTVSPost2010PropOp56
 70
     1
102
RTVSPost2010Prop57
140
1.0
102
RTVSPost2010PropOp57
 70
     1
  0
XRECORD
  5
400
102
{ACAD_REACTORS
330
3FF
102
}
330
3FF
100
AcDbXrecord
280
     1
102
RTVSPropertyOp0
 70
     1
102
RTVSPropertyOp1
 70
     1
102
RTVSPropertyOp2
 70
     1
102
RTVSPropertyOp3
 70
     1
102
RTVSPropertyOp4
 70
     1
102
RTVSPropertyOp5
 70
     1
102
RTVSPropertyOp6
 70
     1
102
RTVSPropertyOp7
 70
     1
102
RTVSPropertyOp8
 70
     1
102
RTVSPropertyOp9
 70
     1
102
RTVSPropertyOp10
 70
     1
102
RTVSPropertyOp11
 70
     1
102
RTVSPropertyOp12
 70
     1
102
RTVSPropertyOp13
 70
     1
102
RTVSPropertyOp14
 70
     1
102
RTVSPropertyOp15
 70
     1
102
RTVSPropertyOp16
 70
     1
102
RTVSPropertyOp17
 70
     1
102
RTVSPropertyOp18
 70
     1
102
RTVSPropertyOp19
 70
     1
102
RTVSPropertyOp20
 70
     1
102
RTVSPropertyOp21
 70
     1
102
RTVSPropertyOp22
 70
     1
102
RTVSPropertyOp23
 70
     1
102
RTVSPropertyOp24
 70
     1
102
RTVSPropertyOp25
 70
     1
102
RTVSPropertyOp26
 70
     1
102
RTVSPropertyOp27
 70
     1
102
RTVSPropertyOp28
 70
     1
102
RTVSPropertyOp29
 70
     1
102
RTVSPropertyOp30
 70
     1
102
RTVSPropertyOp31
 70
     1
102
RTVSPropertyOp32
 70
     1
102
RTVSPropertyOp33
 70
     1
102
RTVSPropertyOp34
 70
     1
102
RTVSPropertyOp35
 70
     1
102
RTVSPropertyOp36
 70
     1
102
RTVSPropertyOp37
 70
     1
102
RTVSPropertyOp38
 70
     1
102
RTVSPropertyOp39
 70
     1
102
RTVSPropertyOp40
 70
     1
102
RTVSPropertyOp41
 70
     1
102
RTVSPropertyOp42
 70
     1
102
RTVSPropertyOp43
 70
     1
102
RTVSPropertyOp44
 70
     1
102
RTVSPropertyOp45
 70
     1
102
RTVSPropertyOp46
 70
     1
102
RTVSPropertyOp47
 70
     1
102
RTVSPropertyOp48
 70
     1
102
RTVSPropertyOp49
 70
     1
102
RTVSPropertyOp50
 70
     1
102
RTVSPropertyOp51
 70
     0
102
RTVSPropertyOp52
 70
     0
102
RTVSPropertyOp53
 70
     1
102
RTVSPropertyOp54
 70
     1
102
RTVSPropertyOp55
 70
     1
102
RTVSPropertyOp56
 70
     1
102
RTVSPropertyOp57
 70
     1
102
RTVSPost2010Prop28
280
     0
102
RTVSPost2010PropOp28
 70
     1
102
RTVSPost2010Prop29
280
     1
102
RTVSPost2010PropOp29
 70
     1
102
RTVSPost2010Prop30
280
     1
102
RTVSPost2010PropOp30
 70
     1
102
RTVSPost2010Prop31
280
     0
102
RTVSPost2010PropOp31
 70
     1
102
RTVSPost2010Prop32
280
     0
102
RTVSPost2010PropOp32
 70
     1
102
RTVSPost2010Prop33
280
     0
102
RTVSPost2010PropOp33
 70
     1
102
RTVSPost2010Prop34
280
     0
102
RTVSPost2010PropOp34
 70
     1
102
RTVSPost2010Prop35
280
     0
102
RTVSPost2010PropOp35
 70
     1
102
RTVSPost2010Prop36
280
     0
102
RTVSPost2010PropOp36
 70
     1
102
RTVSPost2010Prop37
 90
       50
102
RTVSPost2010PropOp37
 70
     1
102
RTVSPost2010Prop38
140
0.0
102
RTVSPost2010PropOp38
 70
     1
102
RTVSPost2010Prop39
140
1.0
102
RTVSPost2010PropOp39
 70
     1
102
RTVSPost2010Prop40
 90
        0
102
RTVSPost2010PropOp40
 70
     1
102
RTVSPost2010Prop41ColorIndex
 90
       18
102
RTVSPost2010Prop41ColorRGB
 90
        0
102
RTVSPost2010PropOp41
 70
     1
102
RTVSPost2010Prop42
 90
       50
102
RTVSPost2010PropOp42
 70
     1
102
RTVSPost2010Prop43
 90
        3
102
RTVSPost2010PropOp43
 70
     1
102
RTVSPost2010Prop44ColorIndex
 90
        5
102
RTVSPost2010Prop44ColorRGB
 90
      255
102
RTVSPost2010PropOp44
 70
     1
102
RTVSPost2010Prop45
280
     0
102
RTVSPost2010PropOp45
 70
     1
102
RTVSPost2010Prop46
 90
       50
102
RTVSPost2010PropOp46
 70
     1
102
RTVSPost2010Prop47
 90
       50
102
RTVSPost2010PropOp47
 70
     1
102
RTVSPost2010Prop48
 90
       50
102
RTVSPost2010PropOp48
 70
     1
102
RTVSPost2010Prop49
280
     0
102
RTVSPost2010PropOp49
 70
     1
102
RTVSPost2010Prop50
 90
       50
102
RTVSPost2010PropOp50
 70
     1
102
RTVSPost2010Prop51ColorIndex
 90
      256
102
RTVSPost2010Prop51ColorRGB
 90
-16777216
102
RTVSPost2010PropOp51
 70
     0
102
RTVSPost2010Prop52
140
1.0
102
RTVSPost2010PropOp52
 70
     0
102
RTVSPost2010Prop53
 90
        2
102
RTVSPost2010PropOp53
 70
     1
102
RTVSPost2010Prop54
  1
strokes_ogs.tif
102
RTVSPost2010PropOp54
 70
     1
102
RTVSPost2010Prop55
280
     0
102
RTVSPost2010PropOp55
 70
     1
102
RTVSPost2010Prop56
140
1.0
102
RTVSPost2010PropOp56
 70
     1
102
RTVSPost2010Prop57
140
1.0
102
RTVSPost2010PropOp57
 70
     1
  0
XRECORD
  5
402
102
{ACAD_REACTORS
330
401
102
}
330
401
100
AcDbXrecord
280
     1
102
RTVSPropertyOp0
 70
     1
102
RTVSPropertyOp1
 70
     1
102
RTVSPropertyOp2
 70
     1
102
RTVSPropertyOp3
 70
     1
102
RTVSPropertyOp4
 70
     1
102
RTVSPropertyOp5
 70
     1
102
RTVSPropertyOp6
 70
     1
102
RTVSPropertyOp7
 70
     1
102
RTVSPropertyOp8
 70
     1
102
RTVSPropertyOp9
 70
     1
102
RTVSPropertyOp10
 70
     1
102
RTVSPropertyOp11
 70
     1
102
RTVSPropertyOp12
 70
     1
102
RTVSPropertyOp13
 70
     1
102
RTVSPropertyOp14
 70
     1
102
RTVSPropertyOp15
 70
     1
102
RTVSPropertyOp16
 70
     1
102
RTVSPropertyOp17
 70
     1
102
RTVSPropertyOp18
 70
     1
102
RTVSPropertyOp19
 70
     1
102
RTVSPropertyOp20
 70
     1
102
RTVSPropertyOp21
 70
     1
102
RTVSPropertyOp22
 70
     1
102
RTVSPropertyOp23
 70
     1
102
RTVSPropertyOp24
 70
     1
102
RTVSPropertyOp25
 70
     1
102
RTVSPropertyOp26
 70
     1
102
RTVSPropertyOp27
 70
     1
102
RTVSPropertyOp28
 70
     1
102
RTVSPropertyOp29
 70
     1
102
RTVSPropertyOp30
 70
     1
102
RTVSPropertyOp31
 70
     1
102
RTVSPropertyOp32
 70
     1
102
RTVSPropertyOp33
 70
     1
102
RTVSPropertyOp34
 70
     1
102
RTVSPropertyOp35
 70
     1
102
RTVSPropertyOp36
 70
     1
102
RTVSPropertyOp37
 70
     1
102
RTVSPropertyOp38
 70
     1
102
RTVSPropertyOp39
 70
     1
102
RTVSPropertyOp40
 70
     1
102
RTVSPropertyOp41
 70
     1
102
RTVSPropertyOp42
 70
     1
102
RTVSPropertyOp43
 70
     1
102
RTVSPropertyOp44
 70
     1
102
RTVSPropertyOp45
 70
     1
102
RTVSPropertyOp46
 70
     1
102
RTVSPropertyOp47
 70
     1
102
RTVSPropertyOp48
 70
     1
102
RTVSPropertyOp49
 70
     1
102
RTVSPropertyOp50
 70
     1
102
RTVSPropertyOp51
 70
     0
102
RTVSPropertyOp52
 70
     0
102
RTVSPropertyOp53
 70
     1
102
RTVSPropertyOp54
 70
     1
102
RTVSPropertyOp55
 70
     1
102
RTVSPropertyOp56
 70
     1
102
RTVSPropertyOp57
 70
     1
102
RTVSPost2010Prop28
280
     0
102
RTVSPost2010PropOp28
 70
     1
102
RTVSPost2010Prop29
280
     1
102
RTVSPost2010PropOp29
 70
     1
102
RTVSPost2010Prop30
280
     1
102
RTVSPost2010PropOp30
 70
     1
102
RTVSPost2010Prop31
280
     0
102
RTVSPost2010PropOp31
 70
     1
102
RTVSPost2010Prop32
280
     0
102
RTVSPost2010PropOp32
 70
     1
102
RTVSPost2010Prop33
280
     0
102
RTVSPost2010PropOp33
 70
     1
102
RTVSPost2010Prop34
280
     0
102
RTVSPost2010PropOp34
 70
     1
102
RTVSPost2010Prop35
280
     0
102
RTVSPost2010PropOp35
 70
     1
102
RTVSPost2010Prop36
280
     0
102
RTVSPost2010PropOp36
 70
     1
102
RTVSPost2010Prop37
 90
       50
102
RTVSPost2010PropOp37
 70
     1
102
RTVSPost2010Prop38
140
0.0
102
RTVSPost2010PropOp38
 70
     1
102
RTVSPost2010Prop39
140
1.0
102
RTVSPost2010PropOp39
 70
     1
102
RTVSPost2010Prop40
 90
        0
102
RTVSPost2010PropOp40
 70
     1
102
RTVSPost2010Prop41ColorIndex
 90
       18
102
RTVSPost2010Prop41ColorRGB
 90
        0
102
RTVSPost2010PropOp41
 70
     1
102
RTVSPost2010Prop42
 90
       50
102
RTVSPost2010PropOp42
 70
     1
102
RTVSPost2010Prop43
 90
        3
102
RTVSPost2010PropOp43
 70
     1
102
RTVSPost2010Prop44ColorIndex
 90
        5
102
RTVSPost2010Prop44ColorRGB
 90
      255
102
RTVSPost2010PropOp44
 70
     1
102
RTVSPost2010Prop45
280
     0
102
RTVSPost2010PropOp45
 70
     1
102
RTVSPost2010Prop46
 90
       50
102
RTVSPost2010PropOp46
 70
     1
102
RTVSPost2010Prop47
 90
       50
102
RTVSPost2010PropOp47
 70
     1
102
RTVSPost2010Prop48
 90
       50
102
RTVSPost2010PropOp48
 70
     1
102
RTVSPost2010Prop49
280
     0
102
RTVSPost2010PropOp49
 70
     1
102
RTVSPost2010Prop50
 90
       50
102
RTVSPost2010PropOp50
 70
     1
102
RTVSPost2010Prop51ColorIndex
 90
      256
102
RTVSPost2010Prop51ColorRGB
 90
-16777216
102
RTVSPost2010PropOp51
 70
     0
102
RTVSPost2010Prop52
140
1.0
102
RTVSPost2010PropOp52
 70
     0
102
RTVSPost2010Prop53
 90
        2
102
RTVSPost2010PropOp53
 70
     1
102
RTVSPost2010Prop54
  1
strokes_ogs.tif
102
RTVSPost2010PropOp54
 70
     1
102
RTVSPost2010Prop55
280
     0
102
RTVSPost2010PropOp55
 70
     1
102
RTVSPost2010Prop56
140
1.0
102
RTVSPost2010PropOp56
 70
     1
102
RTVSPost2010Prop57
140
1.0
102
RTVSPost2010PropOp57
 70
     1
  0
XRECORD
  5
408
102
{ACAD_REACTORS
330
407
102
}
330
407
100
AcDbXrecord
280
     1
102
RTVSPropertyOp0
 70
     1
102
RTVSPropertyOp1
 70
     1
102
RTVSPropertyOp2
 70
     1
102
RTVSPropertyOp3
 70
     1
102
RTVSPropertyOp4
 70
     1
102
RTVSPropertyOp5
 70
     1
102
RTVSPropertyOp6
 70
     1
102
RTVSPropertyOp7
 70
     1
102
RTVSPropertyOp8
 70
     1
102
RTVSPropertyOp9
 70
     1
102
RTVSPropertyOp10
 70
     1
102
RTVSPropertyOp11
 70
     1
102
RTVSPropertyOp12
 70
     1
102
RTVSPropertyOp13
 70
     1
102
RTVSPropertyOp14
 70
     1
102
RTVSPropertyOp15
 70
     1
102
RTVSPropertyOp16
 70
     1
102
RTVSPropertyOp17
 70
     1
102
RTVSPropertyOp18
 70
     1
102
RTVSPropertyOp19
 70
     1
102
RTVSPropertyOp20
 70
     1
102
RTVSPropertyOp21
 70
     1
102
RTVSPropertyOp22
 70
     1
102
RTVSPropertyOp23
 70
     1
102
RTVSPropertyOp24
 70
     1
102
RTVSPropertyOp25
 70
     1
102
RTVSPropertyOp26
 70
     1
102
RTVSPropertyOp27
 70
     1
102
RTVSPropertyOp28
 70
     1
102
RTVSPropertyOp29
 70
     1
102
RTVSPropertyOp30
 70
     1
102
RTVSPropertyOp31
 70
     1
102
RTVSPropertyOp32
 70
     1
102
RTVSPropertyOp33
 70
     1
102
RTVSPropertyOp34
 70
     1
102
RTVSPropertyOp35
 70
     1
102
RTVSPropertyOp36
 70
     1
102
RTVSPropertyOp37
 70
     1
102
RTVSPropertyOp38
 70
     1
102
RTVSPropertyOp39
 70
     1
102
RTVSPropertyOp40
 70
     1
102
RTVSPropertyOp41
 70
     1
102
RTVSPropertyOp42
 70
     1
102
RTVSPropertyOp43
 70
     1
102
RTVSPropertyOp44
 70
     1
102
RTVSPropertyOp45
 70
     1
102
RTVSPropertyOp46
 70
     1
102
RTVSPropertyOp47
 70
     1
102
RTVSPropertyOp48
 70
     1
102
RTVSPropertyOp49
 70
     1
102
RTVSPropertyOp50
 70
     1
102
RTVSPropertyOp51
 70
     0
102
RTVSPropertyOp52
 70
     0
102
RTVSPropertyOp53
 70
     1
102
RTVSPropertyOp54
 70
     1
102
RTVSPropertyOp55
 70
     1
102
RTVSPropertyOp56
 70
     1
102
RTVSPropertyOp57
 70
     1
102
RTVSPost2010Prop28
280
     0
102
RTVSPost2010PropOp28
 70
     1
102
RTVSPost2010Prop29
280
     1
102
RTVSPost2010PropOp29
 70
     1
102
RTVSPost2010Prop30
280
     1
102
RTVSPost2010PropOp30
 70
     1
102
RTVSPost2010Prop31
280
     0
102
RTVSPost2010PropOp31
 70
     1
102
RTVSPost2010Prop32
280
     0
102
RTVSPost2010PropOp32
 70
     1
102
RTVSPost2010Prop33
280
     0
102
RTVSPost2010PropOp33
 70
     1
102
RTVSPost2010Prop34
280
     0
102
RTVSPost2010PropOp34
 70
     1
102
RTVSPost2010Prop35
280
     0
102
RTVSPost2010PropOp35
 70
     1
102
RTVSPost2010Prop36
280
     0
102
RTVSPost2010PropOp36
 70
     1
102
RTVSPost2010Prop37
 90
       50
102
RTVSPost2010PropOp37
 70
     1
102
RTVSPost2010Prop38
140
0.0
102
RTVSPost2010PropOp38
 70
     1
102
RTVSPost2010Prop39
140
1.0
102
RTVSPost2010PropOp39
 70
     1
102
RTVSPost2010Prop40
 90
        0
102
RTVSPost2010PropOp40
 70
     1
102
RTVSPost2010Prop41ColorIndex
 90
       18
102
RTVSPost2010Prop41ColorRGB
 90
        0
102
RTVSPost2010PropOp41
 70
     1
102
RTVSPost2010Prop42
 90
       50
102
RTVSPost2010PropOp42
 70
     1
102
RTVSPost2010Prop43
 90
        3
102
RTVSPost2010PropOp43
 70
     1
102
RTVSPost2010Prop44ColorIndex
 90
        5
102
RTVSPost2010Prop44ColorRGB
 90
      255
102
RTVSPost2010PropOp44
 70
     1
102
RTVSPost2010Prop45
280
     0
102
RTVSPost2010PropOp45
 70
     1
102
RTVSPost2010Prop46
 90
       50
102
RTVSPost2010PropOp46
 70
     1
102
RTVSPost2010Prop47
 90
       50
102
RTVSPost2010PropOp47
 70
     1
102
RTVSPost2010Prop48
 90
       50
102
RTVSPost2010PropOp48
 70
     1
102
RTVSPost2010Prop49
280
     0
102
RTVSPost2010PropOp49
 70
     1
102
RTVSPost2010Prop50
 90
       50
102
RTVSPost2010PropOp50
 70
     1
102
RTVSPost2010Prop51ColorIndex
 90
      256
102
RTVSPost2010Prop51ColorRGB
 90
-16777216
102
RTVSPost2010PropOp51
 70
     0
102
RTVSPost2010Prop52
140
1.0
102
RTVSPost2010PropOp52
 70
     0
102
RTVSPost2010Prop53
 90
        2
102
RTVSPost2010PropOp53
 70
     1
102
RTVSPost2010Prop54
  1
strokes_ogs.tif
102
RTVSPost2010PropOp54
 70
     1
102
RTVSPost2010Prop55
280
     0
102
RTVSPost2010PropOp55
 70
     1
102
RTVSPost2010Prop56
140
1.0
102
RTVSPost2010PropOp56
 70
     1
102
RTVSPost2010Prop57
140
1.0
102
RTVSPost2010PropOp57
 70
     1
  0
XRECORD
  5
41C
102
{ACAD_REACTORS
330
41B
102
}
330
41B
100
AcDbXrecord
280
     1
102
RTVSPropertyOp0
 70
     0
102
RTVSPropertyOp1
 70
     0
102
RTVSPropertyOp2
 70
     0
102
RTVSPropertyOp3
 70
     0
102
RTVSPropertyOp4
 70
     0
102
RTVSPropertyOp5
 70
     0
102
RTVSPropertyOp6
 70
     0
102
RTVSPropertyOp7
 70
     0
102
RTVSPropertyOp8
 70
     0
102
RTVSPropertyOp9
 70
     0
102
RTVSPropertyOp10
 70
     0
102
RTVSPropertyOp11
 70
     0
102
RTVSPropertyOp12
 70
     0
102
RTVSPropertyOp13
 70
     0
102
RTVSPropertyOp14
 70
     2
102
RTVSPropertyOp15
 70
     0
102
RTVSPropertyOp16
 70
     0
102
RTVSPropertyOp17
 70
     0
102
RTVSPropertyOp18
 70
     0
102
RTVSPropertyOp19
 70
     0
102
RTVSPropertyOp20
 70
     0
102
RTVSPropertyOp21
 70
     0
102
RTVSPropertyOp22
 70
     0
102
RTVSPropertyOp23
 70
     0
102
RTVSPropertyOp24
 70
     0
102
RTVSPropertyOp25
 70
     0
102
RTVSPropertyOp26
 70
     0
102
RTVSPropertyOp27
 70
     0
102
RTVSPropertyOp28
 70
     0
102
RTVSPropertyOp29
 70
     0
102
RTVSPropertyOp30
 70
     0
102
RTVSPropertyOp31
 70
     0
102
RTVSPropertyOp32
 70
     0
102
RTVSPropertyOp33
 70
     0
102
RTVSPropertyOp34
 70
     0
102
RTVSPropertyOp35
 70
     0
102
RTVSPropertyOp36
 70
     0
102
RTVSPropertyOp37
 70
     0
102
RTVSPropertyOp38
 70
     0
102
RTVSPropertyOp39
 70
     0
102
RTVSPropertyOp40
 70
     0
102
RTVSPropertyOp41
 70
     0
102
RTVSPropertyOp42
 70
     0
102
RTVSPropertyOp43
 70
     0
102
RTVSPropertyOp44
 70
     0
102
RTVSPropertyOp45
 70
     0
102
RTVSPropertyOp46
 70
     0
102
RTVSPropertyOp47
 70
     0
102
RTVSPropertyOp48
 70
     0
102
RTVSPropertyOp49
 70
     0
102
RTVSPropertyOp50
 70
     0
102
RTVSPropertyOp51
 70
     0
102
RTVSPropertyOp52
 70
     0
102
RTVSPropertyOp53
 70
     0
102
RTVSPropertyOp54
 70
     0
102
RTVSPropertyOp55
 70
     0
102
RTVSPropertyOp56
 70
     0
102
RTVSPropertyOp57
 70
     0
102
RTVSPost2010Prop28
280
     0
102
RTVSPost2010PropOp28
 70
     0
102
RTVSPost2010Prop29
280
     1
102
RTVSPost2010PropOp29
 70
     0
102
RTVSPost2010Prop30
280
     1
102
RTVSPost2010PropOp30
 70
     0
102
RTVSPost2010Prop31
280
     0
102
RTVSPost2010PropOp31
 70
     0
102
RTVSPost2010Prop32
280
     0
102
RTVSPost2010PropOp32
 70
     0
102
RTVSPost2010Prop33
280
     0
102
RTVSPost2010PropOp33
 70
     0
102
RTVSPost2010Prop34
280
     0
102
RTVSPost2010PropOp34
 70
     0
102
RTVSPost2010Prop35
280
     0
102
RTVSPost2010PropOp35
 70
     0
102
RTVSPost2010Prop36
280
     0
102
RTVSPost2010PropOp36
 70
     0
102
RTVSPost2010Prop37
 90
       50
102
RTVSPost2010PropOp37
 70
     0
102
RTVSPost2010Prop38
140
0.0
102
RTVSPost2010PropOp38
 70
     0
102
RTVSPost2010Prop39
140
1.0
102
RTVSPost2010PropOp39
 70
     0
102
RTVSPost2010Prop40
 90
        0
102
RTVSPost2010PropOp40
 70
     0
102
RTVSPost2010Prop41ColorIndex
 90
       18
102
RTVSPost2010Prop41ColorRGB
 90
        0
102
RTVSPost2010PropOp41
 70
     0
102
RTVSPost2010Prop42
 90
       50
102
RTVSPost2010PropOp42
 70
     0
102
RTVSPost2010Prop43
 90
        3
102
RTVSPost2010PropOp43
 70
     0
102
RTVSPost2010Prop44ColorIndex
 90
        5
102
RTVSPost2010Prop44ColorRGB
 90
      255
102
RTVSPost2010PropOp44
 70
     0
102
RTVSPost2010Prop45
280
     0
102
RTVSPost2010PropOp45
 70
     0
102
RTVSPost2010Prop46
 90
       50
102
RTVSPost2010PropOp46
 70
     0
102
RTVSPost2010Prop47
 90
       50
102
RTVSPost2010PropOp47
 70
     0
102
RTVSPost2010Prop48
 90
       50
102
RTVSPost2010PropOp48
 70
     0
102
RTVSPost2010Prop49
280
     0
102
RTVSPost2010PropOp49
 70
     0
102
RTVSPost2010Prop50
 90
       50
102
RTVSPost2010PropOp50
 70
     0
102
RTVSPost2010Prop51ColorIndex
 90
      256
102
RTVSPost2010Prop51ColorRGB
 90
-16777216
102
RTVSPost2010PropOp51
 70
     0
102
RTVSPost2010Prop52
140
1.0
102
RTVSPost2010PropOp52
 70
     0
102
RTVSPost2010Prop53
 90
        2
102
RTVSPost2010PropOp53
 70
     0
102
RTVSPost2010Prop54
  1
strokes_ogs.tif
102
RTVSPost2010PropOp54
 70
     0
102
RTVSPost2010Prop55
280
     0
102
RTVSPost2010PropOp55
 70
     0
102
RTVSPost2010Prop56
140
1.0
102
RTVSPost2010PropOp56
 70
     0
102
RTVSPost2010Prop57
140
1.0
102
RTVSPost2010PropOp57
 70
     0
  0
XRECORD
  5
416
102
{ACAD_REACTORS
330
415
102
}
330
415
100
AcDbXrecord
280
     1
102
RTVSPropertyOp0
 70
     1
102
RTVSPropertyOp1
 70
     1
102
RTVSPropertyOp2
 70
     1
102
RTVSPropertyOp3
 70
     1
102
RTVSPropertyOp4
 70
     1
102
RTVSPropertyOp5
 70
     1
102
RTVSPropertyOp6
 70
     1
102
RTVSPropertyOp7
 70
     1
102
RTVSPropertyOp8
 70
     1
102
RTVSPropertyOp9
 70
     1
102
RTVSPropertyOp10
 70
     1
102
RTVSPropertyOp11
 70
     1
102
RTVSPropertyOp12
 70
     1
102
RTVSPropertyOp13
 70
     1
102
RTVSPropertyOp14
 70
     1
102
RTVSPropertyOp15
 70
     1
102
RTVSPropertyOp16
 70
     1
102
RTVSPropertyOp17
 70
     1
102
RTVSPropertyOp18
 70
     1
102
RTVSPropertyOp19
 70
     1
102
RTVSPropertyOp20
 70
     1
102
RTVSPropertyOp21
 70
     1
102
RTVSPropertyOp22
 70
     1
102
RTVSPropertyOp23
 70
     1
102
RTVSPropertyOp24
 70
     1
102
RTVSPropertyOp25
 70
     1
102
RTVSPropertyOp26
 70
     1
102
RTVSPropertyOp27
 70
     1
102
RTVSPropertyOp28
 70
     1
102
RTVSPropertyOp29
 70
     1
102
RTVSPropertyOp30
 70
     1
102
RTVSPropertyOp31
 70
     1
102
RTVSPropertyOp32
 70
     1
102
RTVSPropertyOp33
 70
     1
102
RTVSPropertyOp34
 70
     1
102
RTVSPropertyOp35
 70
     1
102
RTVSPropertyOp36
 70
     1
102
RTVSPropertyOp37
 70
     1
102
RTVSPropertyOp38
 70
     1
102
RTVSPropertyOp39
 70
     1
102
RTVSPropertyOp40
 70
     1
102
RTVSPropertyOp41
 70
     1
102
RTVSPropertyOp42
 70
     1
102
RTVSPropertyOp43
 70
     1
102
RTVSPropertyOp44
 70
     1
102
RTVSPropertyOp45
 70
     1
102
RTVSPropertyOp46
 70
     1
102
RTVSPropertyOp47
 70
     1
102
RTVSPropertyOp48
 70
     1
102
RTVSPropertyOp49
 70
     1
102
RTVSPropertyOp50
 70
     1
102
RTVSPropertyOp51
 70
     0
102
RTVSPropertyOp52
 70
     0
102
RTVSPropertyOp53
 70
     1
102
RTVSPropertyOp54
 70
     1
102
RTVSPropertyOp55
 70
     1
102
RTVSPropertyOp56
 70
     1
102
RTVSPropertyOp57
 70
     1
102
RTVSPost2010Prop28
280
     0
102
RTVSPost2010PropOp28
 70
     1
102
RTVSPost2010Prop29
280
     1
102
RTVSPost2010PropOp29
 70
     1
102
RTVSPost2010Prop30
280
     1
102
RTVSPost2010PropOp30
 70
     1
102
RTVSPost2010Prop31
280
     0
102
RTVSPost2010PropOp31
 70
     1
102
RTVSPost2010Prop32
280
     0
102
RTVSPost2010PropOp32
 70
     1
102
RTVSPost2010Prop33
280
     0
102
RTVSPost2010PropOp33
 70
     1
102
RTVSPost2010Prop34
280
     0
102
RTVSPost2010PropOp34
 70
     1
102
RTVSPost2010Prop35
280
     0
102
RTVSPost2010PropOp35
 70
     1
102
RTVSPost2010Prop36
280
     0
102
RTVSPost2010PropOp36
 70
     1
102
RTVSPost2010Prop37
 90
       50
102
RTVSPost2010PropOp37
 70
     1
102
RTVSPost2010Prop38
140
0.0
102
RTVSPost2010PropOp38
 70
     1
102
RTVSPost2010Prop39
140
1.0
102
RTVSPost2010PropOp39
 70
     1
102
RTVSPost2010Prop40
 90
        0
102
RTVSPost2010PropOp40
 70
     1
102
RTVSPost2010Prop41ColorIndex
 90
       18
102
RTVSPost2010Prop41ColorRGB
 90
        0
102
RTVSPost2010PropOp41
 70
     1
102
RTVSPost2010Prop42
 90
       50
102
RTVSPost2010PropOp42
 70
     1
102
RTVSPost2010Prop43
 90
        3
102
RTVSPost2010PropOp43
 70
     1
102
RTVSPost2010Prop44ColorIndex
 90
        5
102
RTVSPost2010Prop44ColorRGB
 90
      255
102
RTVSPost2010PropOp44
 70
     1
102
RTVSPost2010Prop45
280
     0
102
RTVSPost2010PropOp45
 70
     1
102
RTVSPost2010Prop46
 90
       50
102
RTVSPost2010PropOp46
 70
     1
102
RTVSPost2010Prop47
 90
       50
102
RTVSPost2010PropOp47
 70
     1
102
RTVSPost2010Prop48
 90
       50
102
RTVSPost2010PropOp48
 70
     1
102
RTVSPost2010Prop49
280
     0
102
RTVSPost2010PropOp49
 70
     1
102
RTVSPost2010Prop50
 90
       50
102
RTVSPost2010PropOp50
 70
     1
102
RTVSPost2010Prop51ColorIndex
 90
      256
102
RTVSPost2010Prop51ColorRGB
 90
-16777216
102
RTVSPost2010PropOp51
 70
     0
102
RTVSPost2010Prop52
140
1.0
102
RTVSPost2010PropOp52
 70
     0
102
RTVSPost2010Prop53
 90
        2
102
RTVSPost2010PropOp53
 70
     1
102
RTVSPost2010Prop54
  1
strokes_ogs.tif
102
RTVSPost2010PropOp54
 70
     1
102
RTVSPost2010Prop55
280
     0
102
RTVSPost2010PropOp55
 70
     1
102
RTVSPost2010Prop56
140
1.0
102
RTVSPost2010PropOp56
 70
     1
102
RTVSPost2010Prop57
140
1.0
102
RTVSPost2010PropOp57
 70
     1
  0
XRECORD
  5
41E
102
{ACAD_REACTORS
330
41D
102
}
330
41D
100
AcDbXrecord
280
     1
102
RTVSPropertyOp0
 70
     0
102
RTVSPropertyOp1
 70
     0
102
RTVSPropertyOp2
 70
     0
102
RTVSPropertyOp3
 70
     0
102
RTVSPropertyOp4
 70
     0
102
RTVSPropertyOp5
 70
     0
102
RTVSPropertyOp6
 70
     0
102
RTVSPropertyOp7
 70
     0
102
RTVSPropertyOp8
 70
     0
102
RTVSPropertyOp9
 70
     0
102
RTVSPropertyOp10
 70
     0
102
RTVSPropertyOp11
 70
     0
102
RTVSPropertyOp12
 70
     0
102
RTVSPropertyOp13
 70
     0
102
RTVSPropertyOp14
 70
     2
102
RTVSPropertyOp15
 70
     0
102
RTVSPropertyOp16
 70
     0
102
RTVSPropertyOp17
 70
     0
102
RTVSPropertyOp18
 70
     0
102
RTVSPropertyOp19
 70
     0
102
RTVSPropertyOp20
 70
     0
102
RTVSPropertyOp21
 70
     0
102
RTVSPropertyOp22
 70
     0
102
RTVSPropertyOp23
 70
     0
102
RTVSPropertyOp24
 70
     0
102
RTVSPropertyOp25
 70
     0
102
RTVSPropertyOp26
 70
     0
102
RTVSPropertyOp27
 70
     0
102
RTVSPropertyOp28
 70
     0
102
RTVSPropertyOp29
 70
     0
102
RTVSPropertyOp30
 70
     0
102
RTVSPropertyOp31
 70
     0
102
RTVSPropertyOp32
 70
     0
102
RTVSPropertyOp33
 70
     0
102
RTVSPropertyOp34
 70
     0
102
RTVSPropertyOp35
 70
     0
102
RTVSPropertyOp36
 70
     0
102
RTVSPropertyOp37
 70
     0
102
RTVSPropertyOp38
 70
     0
102
RTVSPropertyOp39
 70
     0
102
RTVSPropertyOp40
 70
     0
102
RTVSPropertyOp41
 70
     0
102
RTVSPropertyOp42
 70
     0
102
RTVSPropertyOp43
 70
     0
102
RTVSPropertyOp44
 70
     0
102
RTVSPropertyOp45
 70
     0
102
RTVSPropertyOp46
 70
     0
102
RTVSPropertyOp47
 70
     0
102
RTVSPropertyOp48
 70
     0
102
RTVSPropertyOp49
 70
     0
102
RTVSPropertyOp50
 70
     0
102
RTVSPropertyOp51
 70
     0
102
RTVSPropertyOp52
 70
     0
102
RTVSPropertyOp53
 70
     0
102
RTVSPropertyOp54
 70
     0
102
RTVSPropertyOp55
 70
     0
102
RTVSPropertyOp56
 70
     0
102
RTVSPropertyOp57
 70
     0
102
RTVSPost2010Prop28
280
     0
102
RTVSPost2010PropOp28
 70
     0
102
RTVSPost2010Prop29
280
     1
102
RTVSPost2010PropOp29
 70
     0
102
RTVSPost2010Prop30
280
     1
102
RTVSPost2010PropOp30
 70
     0
102
RTVSPost2010Prop31
280
     0
102
RTVSPost2010PropOp31
 70
     0
102
RTVSPost2010Prop32
280
     0
102
RTVSPost2010PropOp32
 70
     0
102
RTVSPost2010Prop33
280
     0
102
RTVSPost2010PropOp33
 70
     0
102
RTVSPost2010Prop34
280
     0
102
RTVSPost2010PropOp34
 70
     0
102
RTVSPost2010Prop35
280
     0
102
RTVSPost2010PropOp35
 70
     0
102
RTVSPost2010Prop36
280
     0
102
RTVSPost2010PropOp36
 70
     0
102
RTVSPost2010Prop37
 90
       50
102
RTVSPost2010PropOp37
 70
     0
102
RTVSPost2010Prop38
140
0.0
102
RTVSPost2010PropOp38
 70
     0
102
RTVSPost2010Prop39
140
1.0
102
RTVSPost2010PropOp39
 70
     0
102
RTVSPost2010Prop40
 90
        0
102
RTVSPost2010PropOp40
 70
     0
102
RTVSPost2010Prop41ColorIndex
 90
       18
102
RTVSPost2010Prop41ColorRGB
 90
        0
102
RTVSPost2010PropOp41
 70
     0
102
RTVSPost2010Prop42
 90
       50
102
RTVSPost2010PropOp42
 70
     0
102
RTVSPost2010Prop43
 90
        3
102
RTVSPost2010PropOp43
 70
     0
102
RTVSPost2010Prop44ColorIndex
 90
        5
102
RTVSPost2010Prop44ColorRGB
 90
      255
102
RTVSPost2010PropOp44
 70
     0
102
RTVSPost2010Prop45
280
     0
102
RTVSPost2010PropOp45
 70
     0
102
RTVSPost2010Prop46
 90
       50
102
RTVSPost2010PropOp46
 70
     0
102
RTVSPost2010Prop47
 90
       50
102
RTVSPost2010PropOp47
 70
     0
102
RTVSPost2010Prop48
 90
       50
102
RTVSPost2010PropOp48
 70
     0
102
RTVSPost2010Prop49
280
     0
102
RTVSPost2010PropOp49
 70
     0
102
RTVSPost2010Prop50
 90
       50
102
RTVSPost2010PropOp50
 70
     0
102
RTVSPost2010Prop51ColorIndex
 90
      256
102
RTVSPost2010Prop51ColorRGB
 90
-16777216
102
RTVSPost2010PropOp51
 70
     0
102
RTVSPost2010Prop52
140
1.0
102
RTVSPost2010PropOp52
 70
     0
102
RTVSPost2010Prop53
 90
        2
102
RTVSPost2010PropOp53
 70
     0
102
RTVSPost2010Prop54
  1
strokes_ogs.tif
102
RTVSPost2010PropOp54
 70
     0
102
RTVSPost2010Prop55
280
     0
102
RTVSPost2010PropOp55
 70
     0
102
RTVSPost2010Prop56
140
1.0
102
RTVSPost2010PropOp56
 70
     0
102
RTVSPost2010Prop57
140
1.0
102
RTVSPost2010PropOp57
 70
     0
  0
XRECORD
  5
40C
102
{ACAD_REACTORS
330
40B
102
}
330
40B
100
AcDbXrecord
280
     1
102
RTVSPropertyOp0
 70
     1
102
RTVSPropertyOp1
 70
     1
102
RTVSPropertyOp2
 70
     1
102
RTVSPropertyOp3
 70
     1
102
RTVSPropertyOp4
 70
     1
102
RTVSPropertyOp5
 70
     1
102
RTVSPropertyOp6
 70
     1
102
RTVSPropertyOp7
 70
     1
102
RTVSPropertyOp8
 70
     1
102
RTVSPropertyOp9
 70
     1
102
RTVSPropertyOp10
 70
     1
102
RTVSPropertyOp11
 70
     1
102
RTVSPropertyOp12
 70
     1
102
RTVSPropertyOp13
 70
     1
102
RTVSPropertyOp14
 70
     1
102
RTVSPropertyOp15
 70
     1
102
RTVSPropertyOp16
 70
     1
102
RTVSPropertyOp17
 70
     1
102
RTVSPropertyOp18
 70
     1
102
RTVSPropertyOp19
 70
     1
102
RTVSPropertyOp20
 70
     1
102
RTVSPropertyOp21
 70
     1
102
RTVSPropertyOp22
 70
     1
102
RTVSPropertyOp23
 70
     1
102
RTVSPropertyOp24
 70
     1
102
RTVSPropertyOp25
 70
     1
102
RTVSPropertyOp26
 70
     1
102
RTVSPropertyOp27
 70
     1
102
RTVSPropertyOp28
 70
     1
102
RTVSPropertyOp29
 70
     1
102
RTVSPropertyOp30
 70
     1
102
RTVSPropertyOp31
 70
     1
102
RTVSPropertyOp32
 70
     1
102
RTVSPropertyOp33
 70
     1
102
RTVSPropertyOp34
 70
     1
102
RTVSPropertyOp35
 70
     1
102
RTVSPropertyOp36
 70
     1
102
RTVSPropertyOp37
 70
     1
102
RTVSPropertyOp38
 70
     1
102
RTVSPropertyOp39
 70
     1
102
RTVSPropertyOp40
 70
     1
102
RTVSPropertyOp41
 70
     1
102
RTVSPropertyOp42
 70
     1
102
RTVSPropertyOp43
 70
     1
102
RTVSPropertyOp44
 70
     1
102
RTVSPropertyOp45
 70
     1
102
RTVSPropertyOp46
 70
     1
102
RTVSPropertyOp47
 70
     1
102
RTVSPropertyOp48
 70
     1
102
RTVSPropertyOp49
 70
     1
102
RTVSPropertyOp50
 70
     1
102
RTVSPropertyOp51
 70
     0
102
RTVSPropertyOp52
 70
     0
102
RTVSPropertyOp53
 70
     1
102
RTVSPropertyOp54
 70
     1
102
RTVSPropertyOp55
 70
     1
102
RTVSPropertyOp56
 70
     1
102
RTVSPropertyOp57
 70
     1
102
RTVSPost2010Prop28
280
     0
102
RTVSPost2010PropOp28
 70
     1
102
RTVSPost2010Prop29
280
     1
102
RTVSPost2010PropOp29
 70
     1
102
RTVSPost2010Prop30
280
     1
102
RTVSPost2010PropOp30
 70
     1
102
RTVSPost2010Prop31
280
     0
102
RTVSPost2010PropOp31
 70
     1
102
RTVSPost2010Prop32
280
     0
102
RTVSPost2010PropOp32
 70
     1
102
RTVSPost2010Prop33
280
     0
102
RTVSPost2010PropOp33
 70
     1
102
RTVSPost2010Prop34
280
     0
102
RTVSPost2010PropOp34
 70
     1
102
RTVSPost2010Prop35
280
     0
102
RTVSPost2010PropOp35
 70
     1
102
RTVSPost2010Prop36
280
     0
102
RTVSPost2010PropOp36
 70
     1
102
RTVSPost2010Prop37
 90
       50
102
RTVSPost2010PropOp37
 70
     1
102
RTVSPost2010Prop38
140
0.0
102
RTVSPost2010PropOp38
 70
     1
102
RTVSPost2010Prop39
140
1.0
102
RTVSPost2010PropOp39
 70
     1
102
RTVSPost2010Prop40
 90
        0
102
RTVSPost2010PropOp40
 70
     1
102
RTVSPost2010Prop41ColorIndex
 90
       18
102
RTVSPost2010Prop41ColorRGB
 90
        0
102
RTVSPost2010PropOp41
 70
     1
102
RTVSPost2010Prop42
 90
       50
102
RTVSPost2010PropOp42
 70
     1
102
RTVSPost2010Prop43
 90
        3
102
RTVSPost2010PropOp43
 70
     1
102
RTVSPost2010Prop44ColorIndex
 90
        5
102
RTVSPost2010Prop44ColorRGB
 90
      255
102
RTVSPost2010PropOp44
 70
     1
102
RTVSPost2010Prop45
280
     0
102
RTVSPost2010PropOp45
 70
     1
102
RTVSPost2010Prop46
 90
       50
102
RTVSPost2010PropOp46
 70
     1
102
RTVSPost2010Prop47
 90
       50
102
RTVSPost2010PropOp47
 70
     1
102
RTVSPost2010Prop48
 90
       50
102
RTVSPost2010PropOp48
 70
     1
102
RTVSPost2010Prop49
280
     0
102
RTVSPost2010PropOp49
 70
     1
102
RTVSPost2010Prop50
 90
       50
102
RTVSPost2010PropOp50
 70
     1
102
RTVSPost2010Prop51ColorIndex
 90
      256
102
RTVSPost2010Prop51ColorRGB
 90
-16777216
102
RTVSPost2010PropOp51
 70
     0
102
RTVSPost2010Prop52
140
1.0
102
RTVSPost2010PropOp52
 70
     0
102
RTVSPost2010Prop53
 90
        2
102
RTVSPost2010PropOp53
 70
     1
102
RTVSPost2010Prop54
  1
strokes_ogs.tif
102
RTVSPost2010PropOp54
 70
     1
102
RTVSPost2010Prop55
280
     0
102
RTVSPost2010PropOp55
 70
     1
102
RTVSPost2010Prop56
140
1.0
102
RTVSPost2010PropOp56
 70
     1
102
RTVSPost2010Prop57
140
1.0
102
RTVSPost2010PropOp57
 70
     1
  0
XRECORD
  5
42A
102
{ACAD_REACTORS
330
429
102
}
330
429
100
AcDbXrecord
280
     1
102
RTVSPropertyOp0
 70
     1
102
RTVSPropertyOp1
 70
     1
102
RTVSPropertyOp2
 70
     1
102
RTVSPropertyOp3
 70
     1
102
RTVSPropertyOp4
 70
     1
102
RTVSPropertyOp5
 70
     1
102
RTVSPropertyOp6
 70
     1
102
RTVSPropertyOp7
 70
     1
102
RTVSPropertyOp8
 70
     1
102
RTVSPropertyOp9
 70
     1
102
RTVSPropertyOp10
 70
     1
102
RTVSPropertyOp11
 70
     1
102
RTVSPropertyOp12
 70
     1
102
RTVSPropertyOp13
 70
     1
102
RTVSPropertyOp14
 70
     1
102
RTVSPropertyOp15
 70
     1
102
RTVSPropertyOp16
 70
     1
102
RTVSPropertyOp17
 70
     1
102
RTVSPropertyOp18
 70
     1
102
RTVSPropertyOp19
 70
     1
102
RTVSPropertyOp20
 70
     1
102
RTVSPropertyOp21
 70
     1
102
RTVSPropertyOp22
 70
     1
102
RTVSPropertyOp23
 70
     1
102
RTVSPropertyOp24
 70
     1
102
RTVSPropertyOp25
 70
     1
102
RTVSPropertyOp26
 70
     1
102
RTVSPropertyOp27
 70
     1
102
RTVSPropertyOp28
 70
     1
102
RTVSPropertyOp29
 70
     1
102
RTVSPropertyOp30
 70
     1
102
RTVSPropertyOp31
 70
     1
102
RTVSPropertyOp32
 70
     1
102
RTVSPropertyOp33
 70
     1
102
RTVSPropertyOp34
 70
     1
102
RTVSPropertyOp35
 70
     1
102
RTVSPropertyOp36
 70
     1
102
RTVSPropertyOp37
 70
     1
102
RTVSPropertyOp38
 70
     1
102
RTVSPropertyOp39
 70
     1
102
RTVSPropertyOp40
 70
     1
102
RTVSPropertyOp41
 70
     1
102
RTVSPropertyOp42
 70
     1
102
RTVSPropertyOp43
 70
     1
102
RTVSPropertyOp44
 70
     1
102
RTVSPropertyOp45
 70
     1
102
RTVSPropertyOp46
 70
     1
102
RTVSPropertyOp47
 70
     1
102
RTVSPropertyOp48
 70
     1
102
RTVSPropertyOp49
 70
     1
102
RTVSPropertyOp50
 70
     1
102
RTVSPropertyOp51
 70
     0
102
RTVSPropertyOp52
 70
     0
102
RTVSPropertyOp53
 70
     1
102
RTVSPropertyOp54
 70
     1
102
RTVSPropertyOp55
 70
     1
102
RTVSPropertyOp56
 70
     1
102
RTVSPropertyOp57
 70
     1
102
RTVSPost2010Prop28
280
     0
102
RTVSPost2010PropOp28
 70
     1
102
RTVSPost2010Prop29
280
     1
102
RTVSPost2010PropOp29
 70
     1
102
RTVSPost2010Prop30
280
     1
102
RTVSPost2010PropOp30
 70
     1
102
RTVSPost2010Prop31
280
     0
102
RTVSPost2010PropOp31
 70
     1
102
RTVSPost2010Prop32
280
     0
102
RTVSPost2010PropOp32
 70
     1
102
RTVSPost2010Prop33
280
     0
102
RTVSPost2010PropOp33
 70
     1
102
RTVSPost2010Prop34
280
     0
102
RTVSPost2010PropOp34
 70
     1
102
RTVSPost2010Prop35
280
     0
102
RTVSPost2010PropOp35
 70
     1
102
RTVSPost2010Prop36
280
     0
102
RTVSPost2010PropOp36
 70
     1
102
RTVSPost2010Prop37
 90
       50
102
RTVSPost2010PropOp37
 70
     1
102
RTVSPost2010Prop38
140
0.0
102
RTVSPost2010PropOp38
 70
     1
102
RTVSPost2010Prop39
140
1.0
102
RTVSPost2010PropOp39
 70
     1
102
RTVSPost2010Prop40
 90
        0
102
RTVSPost2010PropOp40
 70
     1
102
RTVSPost2010Prop41ColorIndex
 90
       18
102
RTVSPost2010Prop41ColorRGB
 90
        0
102
RTVSPost2010PropOp41
 70
     1
102
RTVSPost2010Prop42
 90
       50
102
RTVSPost2010PropOp42
 70
     1
102
RTVSPost2010Prop43
 90
        3
102
RTVSPost2010PropOp43
 70
     1
102
RTVSPost2010Prop44ColorIndex
 90
        5
102
RTVSPost2010Prop44ColorRGB
 90
      255
102
RTVSPost2010PropOp44
 70
     1
102
RTVSPost2010Prop45
280
     0
102
RTVSPost2010PropOp45
 70
     1
102
RTVSPost2010Prop46
 90
       50
102
RTVSPost2010PropOp46
 70
     1
102
RTVSPost2010Prop47
 90
       50
102
RTVSPost2010PropOp47
 70
     1
102
RTVSPost2010Prop48
 90
       50
102
RTVSPost2010PropOp48
 70
     1
102
RTVSPost2010Prop49
280
     0
102
RTVSPost2010PropOp49
 70
     1
102
RTVSPost2010Prop50
 90
       50
102
RTVSPost2010PropOp50
 70
     1
102
RTVSPost2010Prop51ColorIndex
 90
      256
102
RTVSPost2010Prop51ColorRGB
 90
-16777216
102
RTVSPost2010PropOp51
 70
     0
102
RTVSPost2010Prop52
140
1.0
102
RTVSPost2010PropOp52
 70
     0
102
RTVSPost2010Prop53
 90
        2
102
RTVSPost2010PropOp53
 70
     1
102
RTVSPost2010Prop54
  1
strokes_ogs.tif
102
RTVSPost2010PropOp54
 70
     1
102
RTVSPost2010Prop55
280
     0
102
RTVSPost2010PropOp55
 70
     1
102
RTVSPost2010Prop56
140
1.0
102
RTVSPost2010PropOp56
 70
     1
102
RTVSPost2010Prop57
140
1.0
102
RTVSPost2010PropOp57
 70
     1
  0
XRECORD
  5
428
102
{ACAD_REACTORS
330
427
102
}
330
427
100
AcDbXrecord
280
     1
102
RTVSPropertyOp0
 70
     1
102
RTVSPropertyOp1
 70
     1
102
RTVSPropertyOp2
 70
     1
102
RTVSPropertyOp3
 70
     1
102
RTVSPropertyOp4
 70
     1
102
RTVSPropertyOp5
 70
     1
102
RTVSPropertyOp6
 70
     1
102
RTVSPropertyOp7
 70
     1
102
RTVSPropertyOp8
 70
     1
102
RTVSPropertyOp9
 70
     1
102
RTVSPropertyOp10
 70
     1
102
RTVSPropertyOp11
 70
     1
102
RTVSPropertyOp12
 70
     1
102
RTVSPropertyOp13
 70
     1
102
RTVSPropertyOp14
 70
     1
102
RTVSPropertyOp15
 70
     1
102
RTVSPropertyOp16
 70
     1
102
RTVSPropertyOp17
 70
     1
102
RTVSPropertyOp18
 70
     1
102
RTVSPropertyOp19
 70
     1
102
RTVSPropertyOp20
 70
     1
102
RTVSPropertyOp21
 70
     1
102
RTVSPropertyOp22
 70
     1
102
RTVSPropertyOp23
 70
     1
102
RTVSPropertyOp24
 70
     1
102
RTVSPropertyOp25
 70
     1
102
RTVSPropertyOp26
 70
     1
102
RTVSPropertyOp27
 70
     1
102
RTVSPropertyOp28
 70
     1
102
RTVSPropertyOp29
 70
     1
102
RTVSPropertyOp30
 70
     1
102
RTVSPropertyOp31
 70
     1
102
RTVSPropertyOp32
 70
     1
102
RTVSPropertyOp33
 70
     1
102
RTVSPropertyOp34
 70
     1
102
RTVSPropertyOp35
 70
     1
102
RTVSPropertyOp36
 70
     1
102
RTVSPropertyOp37
 70
     1
102
RTVSPropertyOp38
 70
     1
102
RTVSPropertyOp39
 70
     1
102
RTVSPropertyOp40
 70
     1
102
RTVSPropertyOp41
 70
     1
102
RTVSPropertyOp42
 70
     1
102
RTVSPropertyOp43
 70
     1
102
RTVSPropertyOp44
 70
     1
102
RTVSPropertyOp45
 70
     1
102
RTVSPropertyOp46
 70
     1
102
RTVSPropertyOp47
 70
     1
102
RTVSPropertyOp48
 70
     1
102
RTVSPropertyOp49
 70
     1
102
RTVSPropertyOp50
 70
     1
102
RTVSPropertyOp51
 70
     0
102
RTVSPropertyOp52
 70
     0
102
RTVSPropertyOp53
 70
     1
102
RTVSPropertyOp54
 70
     1
102
RTVSPropertyOp55
 70
     1
102
RTVSPropertyOp56
 70
     1
102
RTVSPropertyOp57
 70
     1
102
RTVSPost2010Prop28
280
     0
102
RTVSPost2010PropOp28
 70
     1
102
RTVSPost2010Prop29
280
     1
102
RTVSPost2010PropOp29
 70
     1
102
RTVSPost2010Prop30
280
     1
102
RTVSPost2010PropOp30
 70
     1
102
RTVSPost2010Prop31
280
     0
102
RTVSPost2010PropOp31
 70
     1
102
RTVSPost2010Prop32
280
     0
102
RTVSPost2010PropOp32
 70
     1
102
RTVSPost2010Prop33
280
     0
102
RTVSPost2010PropOp33
 70
     1
102
RTVSPost2010Prop34
280
     0
102
RTVSPost2010PropOp34
 70
     1
102
RTVSPost2010Prop35
280
     0
102
RTVSPost2010PropOp35
 70
     1
102
RTVSPost2010Prop36
280
     0
102
RTVSPost2010PropOp36
 70
     1
102
RTVSPost2010Prop37
 90
       50
102
RTVSPost2010PropOp37
 70
     1
102
RTVSPost2010Prop38
140
0.0
102
RTVSPost2010PropOp38
 70
     1
102
RTVSPost2010Prop39
140
1.0
102
RTVSPost2010PropOp39
 70
     1
102
RTVSPost2010Prop40
 90
        0
102
RTVSPost2010PropOp40
 70
     1
102
RTVSPost2010Prop41ColorIndex
 90
       18
102
RTVSPost2010Prop41ColorRGB
 90
        0
102
RTVSPost2010PropOp41
 70
     1
102
RTVSPost2010Prop42
 90
       50
102
RTVSPost2010PropOp42
 70
     1
102
RTVSPost2010Prop43
 90
        3
102
RTVSPost2010PropOp43
 70
     1
102
RTVSPost2010Prop44ColorIndex
 90
        5
102
RTVSPost2010Prop44ColorRGB
 90
      255
102
RTVSPost2010PropOp44
 70
     1
102
RTVSPost2010Prop45
280
     0
102
RTVSPost2010PropOp45
 70
     1
102
RTVSPost2010Prop46
 90
       50
102
RTVSPost2010PropOp46
 70
     1
102
RTVSPost2010Prop47
 90
       50
102
RTVSPost2010PropOp47
 70
     1
102
RTVSPost2010Prop48
 90
       50
102
RTVSPost2010PropOp48
 70
     1
102
RTVSPost2010Prop49
280
     0
102
RTVSPost2010PropOp49
 70
     1
102
RTVSPost2010Prop50
 90
       50
102
RTVSPost2010PropOp50
 70
     1
102
RTVSPost2010Prop51ColorIndex
 90
      256
102
RTVSPost2010Prop51ColorRGB
 90
-16777216
102
RTVSPost2010PropOp51
 70
     0
102
RTVSPost2010Prop52
140
1.0
102
RTVSPost2010PropOp52
 70
     0
102
RTVSPost2010Prop53
 90
        2
102
RTVSPost2010PropOp53
 70
     1
102
RTVSPost2010Prop54
  1
strokes_ogs.tif
102
RTVSPost2010PropOp54
 70
     1
102
RTVSPost2010Prop55
280
     0
102
RTVSPost2010PropOp55
 70
     1
102
RTVSPost2010Prop56
140
1.0
102
RTVSPost2010PropOp56
 70
     1
102
RTVSPost2010Prop57
140
1.0
102
RTVSPost2010PropOp57
 70
     1
  0
XRECORD
  5
422
102
{ACAD_REACTORS
330
421
102
}
330
421
100
AcDbXrecord
280
     1
102
RTVSPropertyOp0
 70
     1
102
RTVSPropertyOp1
 70
     1
102
RTVSPropertyOp2
 70
     1
102
RTVSPropertyOp3
 70
     1
102
RTVSPropertyOp4
 70
     1
102
RTVSPropertyOp5
 70
     1
102
RTVSPropertyOp6
 70
     1
102
RTVSPropertyOp7
 70
     1
102
RTVSPropertyOp8
 70
     1
102
RTVSPropertyOp9
 70
     1
102
RTVSPropertyOp10
 70
     1
102
RTVSPropertyOp11
 70
     1
102
RTVSPropertyOp12
 70
     1
102
RTVSPropertyOp13
 70
     1
102
RTVSPropertyOp14
 70
     1
102
RTVSPropertyOp15
 70
     1
102
RTVSPropertyOp16
 70
     1
102
RTVSPropertyOp17
 70
     1
102
RTVSPropertyOp18
 70
     1
102
RTVSPropertyOp19
 70
     1
102
RTVSPropertyOp20
 70
     1
102
RTVSPropertyOp21
 70
     1
102
RTVSPropertyOp22
 70
     1
102
RTVSPropertyOp23
 70
     1
102
RTVSPropertyOp24
 70
     1
102
RTVSPropertyOp25
 70
     1
102
RTVSPropertyOp26
 70
     1
102
RTVSPropertyOp27
 70
     1
102
RTVSPropertyOp28
 70
     1
102
RTVSPropertyOp29
 70
     1
102
RTVSPropertyOp30
 70
     1
102
RTVSPropertyOp31
 70
     1
102
RTVSPropertyOp32
 70
     1
102
RTVSPropertyOp33
 70
     1
102
RTVSPropertyOp34
 70
     1
102
RTVSPropertyOp35
 70
     1
102
RTVSPropertyOp36
 70
     1
102
RTVSPropertyOp37
 70
     1
102
RTVSPropertyOp38
 70
     1
102
RTVSPropertyOp39
 70
     1
102
RTVSPropertyOp40
 70
     1
102
RTVSPropertyOp41
 70
     1
102
RTVSPropertyOp42
 70
     1
102
RTVSPropertyOp43
 70
     1
102
RTVSPropertyOp44
 70
     1
102
RTVSPropertyOp45
 70
     1
102
RTVSPropertyOp46
 70
     1
102
RTVSPropertyOp47
 70
     1
102
RTVSPropertyOp48
 70
     1
102
RTVSPropertyOp49
 70
     1
102
RTVSPropertyOp50
 70
     1
102
RTVSPropertyOp51
 70
     0
102
RTVSPropertyOp52
 70
     0
102
RTVSPropertyOp53
 70
     1
102
RTVSPropertyOp54
 70
     1
102
RTVSPropertyOp55
 70
     1
102
RTVSPropertyOp56
 70
     1
102
RTVSPropertyOp57
 70
     1
102
RTVSPost2010Prop28
280
     0
102
RTVSPost2010PropOp28
 70
     1
102
RTVSPost2010Prop29
280
     1
102
RTVSPost2010PropOp29
 70
     1
102
RTVSPost2010Prop30
280
     1
102
RTVSPost2010PropOp30
 70
     1
102
RTVSPost2010Prop31
280
     0
102
RTVSPost2010PropOp31
 70
     1
102
RTVSPost2010Prop32
280
     0
102
RTVSPost2010PropOp32
 70
     1
102
RTVSPost2010Prop33
280
     0
102
RTVSPost2010PropOp33
 70
     1
102
RTVSPost2010Prop34
280
     0
102
RTVSPost2010PropOp34
 70
     1
102
RTVSPost2010Prop35
280
     0
102
RTVSPost2010PropOp35
 70
     1
102
RTVSPost2010Prop36
280
     0
102
RTVSPost2010PropOp36
 70
     1
102
RTVSPost2010Prop37
 90
       50
102
RTVSPost2010PropOp37
 70
     1
102
RTVSPost2010Prop38
140
0.0
102
RTVSPost2010PropOp38
 70
     1
102
RTVSPost2010Prop39
140
1.0
102
RTVSPost2010PropOp39
 70
     1
102
RTVSPost2010Prop40
 90
        0
102
RTVSPost2010PropOp40
 70
     1
102
RTVSPost2010Prop41ColorIndex
 90
       18
102
RTVSPost2010Prop41ColorRGB
 90
        0
102
RTVSPost2010PropOp41
 70
     1
102
RTVSPost2010Prop42
 90
       50
102
RTVSPost2010PropOp42
 70
     1
102
RTVSPost2010Prop43
 90
        3
102
RTVSPost2010PropOp43
 70
     1
102
RTVSPost2010Prop44ColorIndex
 90
        5
102
RTVSPost2010Prop44ColorRGB
 90
      255
102
RTVSPost2010PropOp44
 70
     1
102
RTVSPost2010Prop45
280
     0
102
RTVSPost2010PropOp45
 70
     1
102
RTVSPost2010Prop46
 90
       50
102
RTVSPost2010PropOp46
 70
     1
102
RTVSPost2010Prop47
 90
       50
102
RTVSPost2010PropOp47
 70
     1
102
RTVSPost2010Prop48
 90
       50
102
RTVSPost2010PropOp48
 70
     1
102
RTVSPost2010Prop49
280
     0
102
RTVSPost2010PropOp49
 70
     1
102
RTVSPost2010Prop50
 90
       50
102
RTVSPost2010PropOp50
 70
     1
102
RTVSPost2010Prop51ColorIndex
 90
      256
102
RTVSPost2010Prop51ColorRGB
 90
-16777216
102
RTVSPost2010PropOp51
 70
     0
102
RTVSPost2010Prop52
140
1.0
102
RTVSPost2010PropOp52
 70
     0
102
RTVSPost2010Prop53
 90
        2
102
RTVSPost2010PropOp53
 70
     1
102
RTVSPost2010Prop54
  1
strokes_ogs.tif
102
RTVSPost2010PropOp54
 70
     1
102
RTVSPost2010Prop55
280
     0
102
RTVSPost2010PropOp55
 70
     1
102
RTVSPost2010Prop56
140
1.0
102
RTVSPost2010PropOp56
 70
     1
102
RTVSPost2010Prop57
140
1.0
102
RTVSPost2010PropOp57
 70
     1
  0
XRECORD
  5
424
102
{ACAD_REACTORS
330
423
102
}
330
423
100
AcDbXrecord
280
     1
102
RTVSPropertyOp0
 70
     1
102
RTVSPropertyOp1
 70
     1
102
RTVSPropertyOp2
 70
     1
102
RTVSPropertyOp3
 70
     1
102
RTVSPropertyOp4
 70
     1
102
RTVSPropertyOp5
 70
     1
102
RTVSPropertyOp6
 70
     1
102
RTVSPropertyOp7
 70
     1
102
RTVSPropertyOp8
 70
     1
102
RTVSPropertyOp9
 70
     1
102
RTVSPropertyOp10
 70
     1
102
RTVSPropertyOp11
 70
     1
102
RTVSPropertyOp12
 70
     1
102
RTVSPropertyOp13
 70
     1
102
RTVSPropertyOp14
 70
     1
102
RTVSPropertyOp15
 70
     1
102
RTVSPropertyOp16
 70
     1
102
RTVSPropertyOp17
 70
     1
102
RTVSPropertyOp18
 70
     1
102
RTVSPropertyOp19
 70
     1
102
RTVSPropertyOp20
 70
     1
102
RTVSPropertyOp21
 70
     1
102
RTVSPropertyOp22
 70
     1
102
RTVSPropertyOp23
 70
     1
102
RTVSPropertyOp24
 70
     1
102
RTVSPropertyOp25
 70
     1
102
RTVSPropertyOp26
 70
     1
102
RTVSPropertyOp27
 70
     1
102
RTVSPropertyOp28
 70
     1
102
RTVSPropertyOp29
 70
     1
102
RTVSPropertyOp30
 70
     1
102
RTVSPropertyOp31
 70
     1
102
RTVSPropertyOp32
 70
     1
102
RTVSPropertyOp33
 70
     1
102
RTVSPropertyOp34
 70
     1
102
RTVSPropertyOp35
 70
     1
102
RTVSPropertyOp36
 70
     1
102
RTVSPropertyOp37
 70
     1
102
RTVSPropertyOp38
 70
     1
102
RTVSPropertyOp39
 70
     1
102
RTVSPropertyOp40
 70
     1
102
RTVSPropertyOp41
 70
     1
102
RTVSPropertyOp42
 70
     1
102
RTVSPropertyOp43
 70
     1
102
RTVSPropertyOp44
 70
     1
102
RTVSPropertyOp45
 70
     1
102
RTVSPropertyOp46
 70
     1
102
RTVSPropertyOp47
 70
     1
102
RTVSPropertyOp48
 70
     1
102
RTVSPropertyOp49
 70
     1
102
RTVSPropertyOp50
 70
     1
102
RTVSPropertyOp51
 70
     0
102
RTVSPropertyOp52
 70
     0
102
RTVSPropertyOp53
 70
     1
102
RTVSPropertyOp54
 70
     1
102
RTVSPropertyOp55
 70
     1
102
RTVSPropertyOp56
 70
     1
102
RTVSPropertyOp57
 70
     1
102
RTVSPost2010Prop28
280
     0
102
RTVSPost2010PropOp28
 70
     1
102
RTVSPost2010Prop29
280
     1
102
RTVSPost2010PropOp29
 70
     1
102
RTVSPost2010Prop30
280
     1
102
RTVSPost2010PropOp30
 70
     1
102
RTVSPost2010Prop31
280
     0
102
RTVSPost2010PropOp31
 70
     1
102
RTVSPost2010Prop32
280
     0
102
RTVSPost2010PropOp32
 70
     1
102
RTVSPost2010Prop33
280
     0
102
RTVSPost2010PropOp33
 70
     1
102
RTVSPost2010Prop34
280
     0
102
RTVSPost2010PropOp34
 70
     1
102
RTVSPost2010Prop35
280
     0
102
RTVSPost2010PropOp35
 70
     1
102
RTVSPost2010Prop36
280
     0
102
RTVSPost2010PropOp36
 70
     1
102
RTVSPost2010Prop37
 90
       50
102
RTVSPost2010PropOp37
 70
     1
102
RTVSPost2010Prop38
140
0.0
102
RTVSPost2010PropOp38
 70
     1
102
RTVSPost2010Prop39
140
1.0
102
RTVSPost2010PropOp39
 70
     1
102
RTVSPost2010Prop40
 90
        0
102
RTVSPost2010PropOp40
 70
     1
102
RTVSPost2010Prop41ColorIndex
 90
       18
102
RTVSPost2010Prop41ColorRGB
 90
        0
102
RTVSPost2010PropOp41
 70
     1
102
RTVSPost2010Prop42
 90
       50
102
RTVSPost2010PropOp42
 70
     1
102
RTVSPost2010Prop43
 90
        3
102
RTVSPost2010PropOp43
 70
     1
102
RTVSPost2010Prop44ColorIndex
 90
        5
102
RTVSPost2010Prop44ColorRGB
 90
      255
102
RTVSPost2010PropOp44
 70
     1
102
RTVSPost2010Prop45
280
     0
102
RTVSPost2010PropOp45
 70
     1
102
RTVSPost2010Prop46
 90
       50
102
RTVSPost2010PropOp46
 70
     1
102
RTVSPost2010Prop47
 90
       50
102
RTVSPost2010PropOp47
 70
     1
102
RTVSPost2010Prop48
 90
       50
102
RTVSPost2010PropOp48
 70
     1
102
RTVSPost2010Prop49
280
     0
102
RTVSPost2010PropOp49
 70
     1
102
RTVSPost2010Prop50
 90
       50
102
RTVSPost2010PropOp50
 70
     1
102
RTVSPost2010Prop51ColorIndex
 90
      256
102
RTVSPost2010Prop51ColorRGB
 90
-16777216
102
RTVSPost2010PropOp51
 70
     0
102
RTVSPost2010Prop52
140
1.0
102
RTVSPost2010PropOp52
 70
     0
102
RTVSPost2010Prop53
 90
        2
102
RTVSPost2010PropOp53
 70
     1
102
RTVSPost2010Prop54
  1
strokes_ogs.tif
102
RTVSPost2010PropOp54
 70
     1
102
RTVSPost2010Prop55
280
     0
102
RTVSPost2010PropOp55
 70
     1
102
RTVSPost2010Prop56
140
1.0
102
RTVSPost2010PropOp56
 70
     1
102
RTVSPost2010Prop57
140
1.0
102
RTVSPost2010PropOp57
 70
     1
  0
XRECORD
  5
414
102
{ACAD_REACTORS
330
413
102
}
330
413
100
AcDbXrecord
280
     1
102
RTVSPropertyOp0
 70
     1
102
RTVSPropertyOp1
 70
     1
102
RTVSPropertyOp2
 70
     1
102
RTVSPropertyOp3
 70
     1
102
RTVSPropertyOp4
 70
     1
102
RTVSPropertyOp5
 70
     1
102
RTVSPropertyOp6
 70
     1
102
RTVSPropertyOp7
 70
     1
102
RTVSPropertyOp8
 70
     1
102
RTVSPropertyOp9
 70
     1
102
RTVSPropertyOp10
 70
     1
102
RTVSPropertyOp11
 70
     1
102
RTVSPropertyOp12
 70
     1
102
RTVSPropertyOp13
 70
     1
102
RTVSPropertyOp14
 70
     1
102
RTVSPropertyOp15
 70
     1
102
RTVSPropertyOp16
 70
     1
102
RTVSPropertyOp17
 70
     1
102
RTVSPropertyOp18
 70
     1
102
RTVSPropertyOp19
 70
     1
102
RTVSPropertyOp20
 70
     1
102
RTVSPropertyOp21
 70
     1
102
RTVSPropertyOp22
 70
     1
102
RTVSPropertyOp23
 70
     1
102
RTVSPropertyOp24
 70
     1
102
RTVSPropertyOp25
 70
     1
102
RTVSPropertyOp26
 70
     1
102
RTVSPropertyOp27
 70
     1
102
RTVSPropertyOp28
 70
     1
102
RTVSPropertyOp29
 70
     1
102
RTVSPropertyOp30
 70
     1
102
RTVSPropertyOp31
 70
     1
102
RTVSPropertyOp32
 70
     1
102
RTVSPropertyOp33
 70
     1
102
RTVSPropertyOp34
 70
     1
102
RTVSPropertyOp35
 70
     1
102
RTVSPropertyOp36
 70
     1
102
RTVSPropertyOp37
 70
     1
102
RTVSPropertyOp38
 70
     1
102
RTVSPropertyOp39
 70
     1
102
RTVSPropertyOp40
 70
     1
102
RTVSPropertyOp41
 70
     1
102
RTVSPropertyOp42
 70
     1
102
RTVSPropertyOp43
 70
     1
102
RTVSPropertyOp44
 70
     1
102
RTVSPropertyOp45
 70
     1
102
RTVSPropertyOp46
 70
     1
102
RTVSPropertyOp47
 70
     1
102
RTVSPropertyOp48
 70
     1
102
RTVSPropertyOp49
 70
     1
102
RTVSPropertyOp50
 70
     1
102
RTVSPropertyOp51
 70
     0
102
RTVSPropertyOp52
 70
     0
102
RTVSPropertyOp53
 70
     1
102
RTVSPropertyOp54
 70
     1
102
RTVSPropertyOp55
 70
     1
102
RTVSPropertyOp56
 70
     1
102
RTVSPropertyOp57
 70
     1
102
RTVSPost2010Prop28
280
     0
102
RTVSPost2010PropOp28
 70
     1
102
RTVSPost2010Prop29
280
     1
102
RTVSPost2010PropOp29
 70
     1
102
RTVSPost2010Prop30
280
     1
102
RTVSPost2010PropOp30
 70
     1
102
RTVSPost2010Prop31
280
     0
102
RTVSPost2010PropOp31
 70
     1
102
RTVSPost2010Prop32
280
     0
102
RTVSPost2010PropOp32
 70
     1
102
RTVSPost2010Prop33
280
     0
102
RTVSPost2010PropOp33
 70
     1
102
RTVSPost2010Prop34
280
     0
102
RTVSPost2010PropOp34
 70
     1
102
RTVSPost2010Prop35
280
     0
102
RTVSPost2010PropOp35
 70
     1
102
RTVSPost2010Prop36
280
     0
102
RTVSPost2010PropOp36
 70
     1
102
RTVSPost2010Prop37
 90
       50
102
RTVSPost2010PropOp37
 70
     1
102
RTVSPost2010Prop38
140
0.0
102
RTVSPost2010PropOp38
 70
     1
102
RTVSPost2010Prop39
140
1.0
102
RTVSPost2010PropOp39
 70
     1
102
RTVSPost2010Prop40
 90
        0
102
RTVSPost2010PropOp40
 70
     1
102
RTVSPost2010Prop41ColorIndex
 90
       18
102
RTVSPost2010Prop41ColorRGB
 90
        0
102
RTVSPost2010PropOp41
 70
     1
102
RTVSPost2010Prop42
 90
       50
102
RTVSPost2010PropOp42
 70
     1
102
RTVSPost2010Prop43
 90
        3
102
RTVSPost2010PropOp43
 70
     1
102
RTVSPost2010Prop44ColorIndex
 90
        5
102
RTVSPost2010Prop44ColorRGB
 90
      255
102
RTVSPost2010PropOp44
 70
     1
102
RTVSPost2010Prop45
280
     0
102
RTVSPost2010PropOp45
 70
     1
102
RTVSPost2010Prop46
 90
       50
102
RTVSPost2010PropOp46
 70
     1
102
RTVSPost2010Prop47
 90
       50
102
RTVSPost2010PropOp47
 70
     1
102
RTVSPost2010Prop48
 90
       50
102
RTVSPost2010PropOp48
 70
     1
102
RTVSPost2010Prop49
280
     0
102
RTVSPost2010PropOp49
 70
     1
102
RTVSPost2010Prop50
 90
       50
102
RTVSPost2010PropOp50
 70
     1
102
RTVSPost2010Prop51ColorIndex
 90
      256
102
RTVSPost2010Prop51ColorRGB
 90
-16777216
102
RTVSPost2010PropOp51
 70
     0
102
RTVSPost2010Prop52
140
1.0
102
RTVSPost2010PropOp52
 70
     0
102
RTVSPost2010Prop53
 90
        2
102
RTVSPost2010PropOp53
 70
     1
102
RTVSPost2010Prop54
  1
strokes_ogs.tif
102
RTVSPost2010PropOp54
 70
     1
102
RTVSPost2010Prop55
280
     0
102
RTVSPost2010PropOp55
 70
     1
102
RTVSPost2010Prop56
140
1.0
102
RTVSPost2010PropOp56
 70
     1
102
RTVSPost2010Prop57
140
1.0
102
RTVSPost2010PropOp57
 70
     1
  0
XRECORD
  5
406
102
{ACAD_REACTORS
330
405
102
}
330
405
100
AcDbXrecord
280
     1
102
RTVSPropertyOp0
 70
     1
102
RTVSPropertyOp1
 70
     1
102
RTVSPropertyOp2
 70
     1
102
RTVSPropertyOp3
 70
     1
102
RTVSPropertyOp4
 70
     1
102
RTVSPropertyOp5
 70
     1
102
RTVSPropertyOp6
 70
     1
102
RTVSPropertyOp7
 70
     1
102
RTVSPropertyOp8
 70
     1
102
RTVSPropertyOp9
 70
     1
102
RTVSPropertyOp10
 70
     1
102
RTVSPropertyOp11
 70
     1
102
RTVSPropertyOp12
 70
     1
102
RTVSPropertyOp13
 70
     1
102
RTVSPropertyOp14
 70
     1
102
RTVSPropertyOp15
 70
     1
102
RTVSPropertyOp16
 70
     1
102
RTVSPropertyOp17
 70
     1
102
RTVSPropertyOp18
 70
     1
102
RTVSPropertyOp19
 70
     1
102
RTVSPropertyOp20
 70
     1
102
RTVSPropertyOp21
 70
     1
102
RTVSPropertyOp22
 70
     1
102
RTVSPropertyOp23
 70
     1
102
RTVSPropertyOp24
 70
     1
102
RTVSPropertyOp25
 70
     1
102
RTVSPropertyOp26
 70
     1
102
RTVSPropertyOp27
 70
     1
102
RTVSPropertyOp28
 70
     1
102
RTVSPropertyOp29
 70
     1
102
RTVSPropertyOp30
 70
     1
102
RTVSPropertyOp31
 70
     1
102
RTVSPropertyOp32
 70
     1
102
RTVSPropertyOp33
 70
     1
102
RTVSPropertyOp34
 70
     1
102
RTVSPropertyOp35
 70
     1
102
RTVSPropertyOp36
 70
     1
102
RTVSPropertyOp37
 70
     1
102
RTVSPropertyOp38
 70
     1
102
RTVSPropertyOp39
 70
     1
102
RTVSPropertyOp40
 70
     1
102
RTVSPropertyOp41
 70
     1
102
RTVSPropertyOp42
 70
     1
102
RTVSPropertyOp43
 70
     1
102
RTVSPropertyOp44
 70
     1
102
RTVSPropertyOp45
 70
     1
102
RTVSPropertyOp46
 70
     1
102
RTVSPropertyOp47
 70
     1
102
RTVSPropertyOp48
 70
     1
102
RTVSPropertyOp49
 70
     1
102
RTVSPropertyOp50
 70
     1
102
RTVSPropertyOp51
 70
     0
102
RTVSPropertyOp52
 70
     0
102
RTVSPropertyOp53
 70
     1
102
RTVSPropertyOp54
 70
     1
102
RTVSPropertyOp55
 70
     1
102
RTVSPropertyOp56
 70
     1
102
RTVSPropertyOp57
 70
     1
102
RTVSPost2010Prop28
280
     0
102
RTVSPost2010PropOp28
 70
     1
102
RTVSPost2010Prop29
280
     1
102
RTVSPost2010PropOp29
 70
     1
102
RTVSPost2010Prop30
280
     1
102
RTVSPost2010PropOp30
 70
     1
102
RTVSPost2010Prop31
280
     0
102
RTVSPost2010PropOp31
 70
     1
102
RTVSPost2010Prop32
280
     0
102
RTVSPost2010PropOp32
 70
     1
102
RTVSPost2010Prop33
280
     0
102
RTVSPost2010PropOp33
 70
     1
102
RTVSPost2010Prop34
280
     0
102
RTVSPost2010PropOp34
 70
     1
102
RTVSPost2010Prop35
280
     0
102
RTVSPost2010PropOp35
 70
     1
102
RTVSPost2010Prop36
280
     0
102
RTVSPost2010PropOp36
 70
     1
102
RTVSPost2010Prop37
 90
       50
102
RTVSPost2010PropOp37
 70
     1
102
RTVSPost2010Prop38
140
0.0
102
RTVSPost2010PropOp38
 70
     1
102
RTVSPost2010Prop39
140
1.0
102
RTVSPost2010PropOp39
 70
     1
102
RTVSPost2010Prop40
 90
        0
102
RTVSPost2010PropOp40
 70
     1
102
RTVSPost2010Prop41ColorIndex
 90
       18
102
RTVSPost2010Prop41ColorRGB
 90
        0
102
RTVSPost2010PropOp41
 70
     1
102
RTVSPost2010Prop42
 90
       50
102
RTVSPost2010PropOp42
 70
     1
102
RTVSPost2010Prop43
 90
        3
102
RTVSPost2010PropOp43
 70
     1
102
RTVSPost2010Prop44ColorIndex
 90
        5
102
RTVSPost2010Prop44ColorRGB
 90
      255
102
RTVSPost2010PropOp44
 70
     1
102
RTVSPost2010Prop45
280
     0
102
RTVSPost2010PropOp45
 70
     1
102
RTVSPost2010Prop46
 90
       50
102
RTVSPost2010PropOp46
 70
     1
102
RTVSPost2010Prop47
 90
       50
102
RTVSPost2010PropOp47
 70
     1
102
RTVSPost2010Prop48
 90
       50
102
RTVSPost2010PropOp48
 70
     1
102
RTVSPost2010Prop49
280
     0
102
RTVSPost2010PropOp49
 70
     1
102
RTVSPost2010Prop50
 90
       50
102
RTVSPost2010PropOp50
 70
     1
102
RTVSPost2010Prop51ColorIndex
 90
      256
102
RTVSPost2010Prop51ColorRGB
 90
-16777216
102
RTVSPost2010PropOp51
 70
     0
102
RTVSPost2010Prop52
140
1.0
102
RTVSPost2010PropOp52
 70
     0
102
RTVSPost2010Prop53
 90
        2
102
RTVSPost2010PropOp53
 70
     1
102
RTVSPost2010Prop54
  1
strokes_ogs.tif
102
RTVSPost2010PropOp54
 70
     1
102
RTVSPost2010Prop55
280
     0
102
RTVSPost2010PropOp55
 70
     1
102
RTVSPost2010Prop56
140
1.0
102
RTVSPost2010PropOp56
 70
     1
102
RTVSPost2010Prop57
140
1.0
102
RTVSPost2010PropOp57
 70
     1
  0
XRECORD
  5
426
102
{ACAD_REACTORS
330
425
102
}
330
425
100
AcDbXrecord
280
     1
102
RTVSPropertyOp0
 70
     1
102
RTVSPropertyOp1
 70
     1
102
RTVSPropertyOp2
 70
     1
102
RTVSPropertyOp3
 70
     1
102
RTVSPropertyOp4
 70
     1
102
RTVSPropertyOp5
 70
     1
102
RTVSPropertyOp6
 70
     1
102
RTVSPropertyOp7
 70
     1
102
RTVSPropertyOp8
 70
     1
102
RTVSPropertyOp9
 70
     1
102
RTVSPropertyOp10
 70
     1
102
RTVSPropertyOp11
 70
     1
102
RTVSPropertyOp12
 70
     1
102
RTVSPropertyOp13
 70
     1
102
RTVSPropertyOp14
 70
     1
102
RTVSPropertyOp15
 70
     1
102
RTVSPropertyOp16
 70
     1
102
RTVSPropertyOp17
 70
     1
102
RTVSPropertyOp18
 70
     1
102
RTVSPropertyOp19
 70
     1
102
RTVSPropertyOp20
 70
     1
102
RTVSPropertyOp21
 70
     1
102
RTVSPropertyOp22
 70
     1
102
RTVSPropertyOp23
 70
     1
102
RTVSPropertyOp24
 70
     1
102
RTVSPropertyOp25
 70
     1
102
RTVSPropertyOp26
 70
     1
102
RTVSPropertyOp27
 70
     1
102
RTVSPropertyOp28
 70
     1
102
RTVSPropertyOp29
 70
     1
102
RTVSPropertyOp30
 70
     1
102
RTVSPropertyOp31
 70
     1
102
RTVSPropertyOp32
 70
     1
102
RTVSPropertyOp33
 70
     1
102
RTVSPropertyOp34
 70
     1
102
RTVSPropertyOp35
 70
     1
102
RTVSPropertyOp36
 70
     1
102
RTVSPropertyOp37
 70
     1
102
RTVSPropertyOp38
 70
     1
102
RTVSPropertyOp39
 70
     1
102
RTVSPropertyOp40
 70
     1
102
RTVSPropertyOp41
 70
     1
102
RTVSPropertyOp42
 70
     1
102
RTVSPropertyOp43
 70
     1
102
RTVSPropertyOp44
 70
     1
102
RTVSPropertyOp45
 70
     1
102
RTVSPropertyOp46
 70
     1
102
RTVSPropertyOp47
 70
     1
102
RTVSPropertyOp48
 70
     1
102
RTVSPropertyOp49
 70
     1
102
RTVSPropertyOp50
 70
     1
102
RTVSPropertyOp51
 70
     0
102
RTVSPropertyOp52
 70
     0
102
RTVSPropertyOp53
 70
     1
102
RTVSPropertyOp54
 70
     1
102
RTVSPropertyOp55
 70
     1
102
RTVSPropertyOp56
 70
     1
102
RTVSPropertyOp57
 70
     1
102
RTVSPost2010Prop28
280
     0
102
RTVSPost2010PropOp28
 70
     1
102
RTVSPost2010Prop29
280
     1
102
RTVSPost2010PropOp29
 70
     1
102
RTVSPost2010Prop30
280
     1
102
RTVSPost2010PropOp30
 70
     1
102
RTVSPost2010Prop31
280
     0
102
RTVSPost2010PropOp31
 70
     1
102
RTVSPost2010Prop32
280
     0
102
RTVSPost2010PropOp32
 70
     1
102
RTVSPost2010Prop33
280
     0
102
RTVSPost2010PropOp33
 70
     1
102
RTVSPost2010Prop34
280
     0
102
RTVSPost2010PropOp34
 70
     1
102
RTVSPost2010Prop35
280
     0
102
RTVSPost2010PropOp35
 70
     1
102
RTVSPost2010Prop36
280
     0
102
RTVSPost2010PropOp36
 70
     1
102
RTVSPost2010Prop37
 90
       50
102
RTVSPost2010PropOp37
 70
     1
102
RTVSPost2010Prop38
140
0.0
102
RTVSPost2010PropOp38
 70
     1
102
RTVSPost2010Prop39
140
1.0
102
RTVSPost2010PropOp39
 70
     1
102
RTVSPost2010Prop40
 90
        0
102
RTVSPost2010PropOp40
 70
     1
102
RTVSPost2010Prop41ColorIndex
 90
       18
102
RTVSPost2010Prop41ColorRGB
 90
        0
102
RTVSPost2010PropOp41
 70
     1
102
RTVSPost2010Prop42
 90
       50
102
RTVSPost2010PropOp42
 70
     1
102
RTVSPost2010Prop43
 90
        3
102
RTVSPost2010PropOp43
 70
     1
102
RTVSPost2010Prop44ColorIndex
 90
        5
102
RTVSPost2010Prop44ColorRGB
 90
      255
102
RTVSPost2010PropOp44
 70
     1
102
RTVSPost2010Prop45
280
     0
102
RTVSPost2010PropOp45
 70
     1
102
RTVSPost2010Prop46
 90
       50
102
RTVSPost2010PropOp46
 70
     1
102
RTVSPost2010Prop47
 90
       50
102
RTVSPost2010PropOp47
 70
     1
102
RTVSPost2010Prop48
 90
       50
102
RTVSPost2010PropOp48
 70
     1
102
RTVSPost2010Prop49
280
     0
102
RTVSPost2010PropOp49
 70
     1
102
RTVSPost2010Prop50
 90
       50
102
RTVSPost2010PropOp50
 70
     1
102
RTVSPost2010Prop51ColorIndex
 90
      256
102
RTVSPost2010Prop51ColorRGB
 90
-16777216
102
RTVSPost2010PropOp51
 70
     0
102
RTVSPost2010Prop52
140
1.0
102
RTVSPost2010PropOp52
 70
     0
102
RTVSPost2010Prop53
 90
        2
102
RTVSPost2010PropOp53
 70
     1
102
RTVSPost2010Prop54
  1
strokes_ogs.tif
102
RTVSPost2010PropOp54
 70
     1
102
RTVSPost2010Prop55
280
     0
102
RTVSPost2010PropOp55
 70
     1
102
RTVSPost2010Prop56
140
1.0
102
RTVSPost2010PropOp56
 70
     1
102
RTVSPost2010Prop57
140
1.0
102
RTVSPost2010PropOp57
 70
     1
  0
ENDSEC
  0
EOF
